  0
SECTION
  2
HEADER
  9
$ACADVER
  1
AC1015
  9
$ACADMAINTVER
 70
     6
  9
$DWGCODEPAGE
  3
ANSI_1254
  9
$INSBASE
 10
0.0
 20
0.0
 30
0.0
  9
$EXTMIN
 10
0.0
 20
0.0
 30
0.0
  9
$EXTMAX
 10
279.4
 20
215.9
 30
0.0
  9
$LIMMIN
 10
0.0
 20
0.0
  9
$LIMMAX
 10
279.4
 20
215.9
  9
$ORTHOMODE
 70
     0
  9
$REGENMODE
 70
     1
  9
$FILLMODE
 70
     1
  9
$QTEXTMODE
 70
     0
  9
$MIRRTEXT
 70
     1
  9
$LTSCALE
 40
1.0
  9
$ATTMODE
 70
     1
  9
$TEXTSIZE
 40
3.5
  9
$TRACEWID
 40
1.0
  9
$TEXTSTYLE
  7
Standard
  9
$CLAYER
  8
0
  9
$CELTYPE
  6
ByLayer
  9
$CECOLOR
 62
   256
  9
$CELTSCALE
 40
1.0
  9
$DISPSILH
 70
     0
  9
$DIMSCALE
 40
1.0
  9
$DIMASZ
 40
3.5
  9
$DIMEXO
 40
1.0
  9
$DIMDLI
 40
3.75
  9
$DIMRND
 40
0.0
  9
$DIMDLE
 40
0.0
  9
$DIMEXE
 40
1.0
  9
$DIMTP
 40
0.0
  9
$DIMTM
 40
0.0
  9
$DIMTXT
 40
3.5
  9
$DIMCEN
 40
2.5
  9
$DIMTSZ
 40
0.0
  9
$DIMTOL
 70
     0
  9
$DIMLIM
 70
     0
  9
$DIMTIH
 70
     1
  9
$DIMTOH
 70
     1
  9
$DIMSE1
 70
     0
  9
$DIMSE2
 70
     0
  9
$DIMTAD
 70
     1
  9
$DIMZIN
 70
     0
  9
$DIMBLK
  1

  9
$DIMASO
 70
     1
  9
$DIMSHO
 70
     1
  9
$DIMPOST
  1

  9
$DIMAPOST
  1

  9
$DIMALT
 70
     0
  9
$DIMALTD
 70
     3
  9
$DIMALTF
 40
0.0393700787
  9
$DIMLFAC
 40
1.0
  9
$DIMTOFL
 70
     1
  9
$DIMTVP
 40
0.0
  9
$DIMTIX
 70
     0
  9
$DIMSOXD
 70
     0
  9
$DIMSAH
 70
     0
  9
$DIMBLK1
  1

  9
$DIMBLK2
  1

  9
$DIMSTYLE
  2
ISO-25
  9
$DIMCLRD
 70
     0
  9
$DIMCLRE
 70
     0
  9
$DIMCLRT
 70
     0
  9
$DIMTFAC
 40
1.0
  9
$DIMGAP
 40
1.524
  9
$DIMJUST
 70
     0
  9
$DIMSD1
 70
     0
  9
$DIMSD2
 70
     0
  9
$DIMTOLJ
 70
     0
  9
$DIMTZIN
 70
     0
  9
$DIMALTZ
 70
     0
  9
$DIMALTTZ
 70
     0
  9
$DIMUPT
 70
     0
  9
$DIMDEC
 70
     2
  9
$DIMTDEC
 70
     2
  9
$DIMALTU
 70
     2
  9
$DIMALTTD
 70
     3
  9
$DIMTXSTY
  7
Standard
  9
$DIMAUNIT
 70
     0
  9
$DIMADEC
 70
     2
  9
$DIMALTRND
 40
0.0
  9
$DIMAZIN
 70
     0
  9
$DIMDSEP
 70
    44
  9
$DIMATFIT
 70
     3
  9
$DIMFRAC
 70
     0
  9
$DIMLDRBLK
  1

  9
$DIMLUNIT
 70
     2
  9
$DIMLWD
 70
    -2
  9
$DIMLWE
 70
    -2
  9
$DIMTMOVE
 70
     0
  9
$LUNITS
 70
     2
  9
$LUPREC
 70
     2
  9
$SKETCHINC
 40
1.0
  9
$FILLETRAD
 40
10.0
  9
$AUNITS
 70
     0
  9
$AUPREC
 70
     2
  9
$MENU
  1
.
  9
$ELEVATION
 40
0.0
  9
$PELEVATION
 40
0.0
  9
$THICKNESS
 40
0.0
  9
$LIMCHECK
 70
     0
  9
$CHAMFERA
 40
0.0
  9
$CHAMFERB
 40
0.0
  9
$CHAMFERC
 40
0.0
  9
$CHAMFERD
 40
0.0
  9
$SKPOLY
 70
     0
  9
$TDCREATE
 40
2459935.710274861
  9
$TDUCREATE
 40
2459935.585274861
  9
$TDUPDATE
 40
2459935.710275047
  9
$TDUUPDATE
 40
2459935.585275047
  9
$TDINDWG
 40
0.0000000116
  9
$TDUSRTIMER
 40
0.0000000116
  9
$USRTIMER
 70
     1
  9
$ANGBASE
 50
0.0
  9
$ANGDIR
 70
     0
  9
$PDMODE
 70
     0
  9
$PDSIZE
 40
-1.0
  9
$PLINEWID
 40
0.0
  9
$SPLFRAME
 70
     0
  9
$SPLINETYPE
 70
     6
  9
$SPLINESEGS
 70
     8
  9
$HANDSEED
  5
10F
  9
$SURFTAB1
 70
     6
  9
$SURFTAB2
 70
     6
  9
$SURFTYPE
 70
     6
  9
$SURFU
 70
     6
  9
$SURFV
 70
     6
  9
$UCSBASE
  2

  9
$UCSNAME
  2

  9
$UCSORG
 10
0.0
 20
0.0
 30
0.0
  9
$UCSXDIR
 10
1.0
 20
0.0
 30
0.0
  9
$UCSYDIR
 10
0.0
 20
1.0
 30
0.0
  9
$UCSORTHOREF
  2

  9
$UCSORTHOVIEW
 70
     0
  9
$UCSORGTOP
 10
0.0
 20
0.0
 30
0.0
  9
$UCSORGBOTTOM
 10
0.0
 20
0.0
 30
0.0
  9
$UCSORGLEFT
 10
0.0
 20
0.0
 30
0.0
  9
$UCSORGRIGHT
 10
0.0
 20
0.0
 30
0.0
  9
$UCSORGFRONT
 10
0.0
 20
0.0
 30
0.0
  9
$UCSORGBACK
 10
0.0
 20
0.0
 30
0.0
  9
$PUCSBASE
  2

  9
$PUCSNAME
  2

  9
$PUCSORG
 10
0.0
 20
0.0
 30
0.0
  9
$PUCSXDIR
 10
1.0
 20
0.0
 30
0.0
  9
$PUCSYDIR
 10
0.0
 20
1.0
 30
0.0
  9
$PUCSORTHOREF
  2

  9
$PUCSORTHOVIEW
 70
     0
  9
$PUCSORGTOP
 10
0.0
 20
0.0
 30
0.0
  9
$PUCSORGBOTTOM
 10
0.0
 20
0.0
 30
0.0
  9
$PUCSORGLEFT
 10
0.0
 20
0.0
 30
0.0
  9
$PUCSORGRIGHT
 10
0.0
 20
0.0
 30
0.0
  9
$PUCSORGFRONT
 10
0.0
 20
0.0
 30
0.0
  9
$PUCSORGBACK
 10
0.0
 20
0.0
 30
0.0
  9
$USERI1
 70
     0
  9
$USERI2
 70
     0
  9
$USERI3
 70
     0
  9
$USERI4
 70
     0
  9
$USERI5
 70
     0
  9
$USERR1
 40
0.0
  9
$USERR2
 40
0.0
  9
$USERR3
 40
0.0
  9
$USERR4
 40
0.0
  9
$USERR5
 40
0.0
  9
$WORLDVIEW
 70
     1
  9
$SHADEDGE
 70
     3
  9
$SHADEDIF
 70
    70
  9
$TILEMODE
 70
     1
  9
$MAXACTVP
 70
    64
  9
$PINSBASE
 10
0.0
 20
0.0
 30
0.0
  9
$PLIMCHECK
 70
     0
  9
$PEXTMIN
 10
1.0000000000E+20
 20
1.0000000000E+20
 30
1.0000000000E+20
  9
$PEXTMAX
 10
-1.0000000000E+20
 20
-1.0000000000E+20
 30
-1.0000000000E+20
  9
$PLIMMIN
 10
0.0
 20
0.0
  9
$PLIMMAX
 10
420.0
 20
297.0
  9
$UNITMODE
 70
     0
  9
$VISRETAIN
 70
     1
  9
$PLINEGEN
 70
     0
  9
$PSLTSCALE
 70
     1
  9
$TREEDEPTH
 70
  3020
  9
$CMLSTYLE
  2
Standard
  9
$CMLJUST
 70
     0
  9
$CMLSCALE
 40
20.0
  9
$PROXYGRAPHICS
 70
     1
  9
$MEASUREMENT
 70
     1
  9
$CELWEIGHT
370
    -1
  9
$ENDCAPS
280
     0
  9
$JOINSTYLE
280
     0
  9
$LWDISPLAY
290
     1
  9
$INSUNITS
 70
     4
  9
$HYPERLINKBASE
  1

  9
$STYLESHEET
  1

  9
$XEDIT
290
     1
  9
$CEPSNTYPE
380
     0
  9
$PSTYLEMODE
290
     1
  9
$FINGERPRINTGUID
  2
{e2da9b4a-35e9-49f1-b4f0-1aecb95e800f}
  9
$VERSIONGUID
  2
{FAEB1C32-E019-11D5-929B-00C0DF256EC4}
  9
$EXTNAMES
290
     1
  9
$PSVPSCALE
 40
0.0
  9
$OLESTARTUP
290
     0
  0
ENDSEC
  0
SECTION
  2
CLASSES
  0
CLASS
  1
ACDBDICTIONARYWDFLT
  2
AcDbDictionaryWithDefault
  3
ObjectDBX Classes
 90
        0
280
     0
281
     0
  0
CLASS
  1
VISUALSTYLE
  2
AcDbVisualStyle
  3
ObjectDBX Classes
 90
     4095
280
     0
281
     0
  0
CLASS
  1
MATERIAL
  2
AcDbMaterial
  3
ObjectDBX Classes
 90
     1153
280
     0
281
     0
  0
CLASS
  1
SCALE
  2
AcDbScale
  3
ObjectDBX Classes
 90
     1153
280
     0
281
     0
  0
CLASS
  1
TABLESTYLE
  2
AcDbTableStyle
  3
ObjectDBX Classes
 90
     4095
280
     0
281
     0
  0
CLASS
  1
MLEADERSTYLE
  2
AcDbMLeaderStyle
  3
ACDB_MLEADERSTYLE_CLASS
 90
     4095
280
     0
281
     0
  0
CLASS
  1
SUN
  2
AcDbSun
  3
SCENEOE
 90
     1153
280
     0
281
     0
  0
CLASS
  1
ACDBPLACEHOLDER
  2
AcDbPlaceHolder
  3
ObjectDBX Classes
 90
        0
280
     0
281
     0
  0
CLASS
  1
LAYOUT
  2
AcDbLayout
  3
ObjectDBX Classes
 90
        0
280
     0
281
     0
  0
ENDSEC
  0
SECTION
  2
TABLES
  0
TABLE
  2
VPORT
  5
8
330
0
100
AcDbSymbolTable
 70
     1
  0
VPORT
  5
29
330
8
100
AcDbSymbolTableRecord
100
AcDbViewportTableRecord
  2
*Active
 70
     0
 10
0.0
 20
0.0
 11
1.0
 21
1.0
 12
139.7
 22
107.95
 13
0.0
 23
0.0
 14
10.0
 24
10.0
 15
10.0
 25
10.0
 16
0.0
 26
0.0
 36
1.0
 17
0.0
 27
0.0
 37
0.0
 40
215.9
 41
1.2941176471
 42
50.0
 43
0.0
 44
0.0
 50
0.0
 51
0.0
 71
     0
 72
  2000
 73
     1
 74
     3
 75
     0
 76
     0
 77
     0
 78
     0
281
     0
 65
     1
110
0.0
120
0.0
130
0.0
111
1.0
121
0.0
131
0.0
112
0.0
122
1.0
132
0.0
 79
     0
146
0.0
  0
ENDTAB
  0
TABLE
  2
LTYPE
  5
5
330
0
100
AcDbSymbolTable
 70
     6
  0
LTYPE
  5
14
330
5
100
AcDbSymbolTableRecord
100
AcDbLinetypeTableRecord
  2
ByBlock
 70
     0
  3

 72
    65
 73
     0
 40
0.0
  0
LTYPE
  5
15
330
5
100
AcDbSymbolTableRecord
100
AcDbLinetypeTableRecord
  2
ByLayer
 70
     0
  3

 72
    65
 73
     0
 40
0.0
  0
LTYPE
  5
16
330
5
100
AcDbSymbolTableRecord
100
AcDbLinetypeTableRecord
  2
Continuous
 70
     0
  3
Solid line
 72
    65
 73
     0
 40
0.0
  0
LTYPE
  5
6E
330
5
100
AcDbSymbolTableRecord
100
AcDbLinetypeTableRecord
  2
HIDDEN
 70
     0
  3
Hidden __ __ __ __ __ __ __ __ __ __ __ __ __ __
 72
    65
 73
     2
 40
1.905
 49
1.27
 74
     0
 49
-0.635
 74
     0
  0
LTYPE
  5
6F
330
5
100
AcDbSymbolTableRecord
100
AcDbLinetypeTableRecord
  2
PHANTOM
 70
     0
  3
Phantom ______  __  __  ______  __  __  ______
 72
    65
 73
     6
 40
12.7
 49
6.35
 74
     0
 49
-1.27
 74
     0
 49
1.27
 74
     0
 49
-1.27
 74
     0
 49
1.27
 74
     0
 49
-1.27
 74
     0
  0
LTYPE
  5
70
330
5
100
AcDbSymbolTableRecord
100
AcDbLinetypeTableRecord
  2
CENTER
 70
     0
  3
Center ____ _ ____ _ ____ _ ____ _ ____ _ ____
 72
    65
 73
     4
 40
10.16
 49
6.35
 74
     0
 49
-1.27
 74
     0
 49
1.27
 74
     0
 49
-1.27
 74
     0
  0
LTYPE
  5
71
330
5
100
AcDbSymbolTableRecord
100
AcDbLinetypeTableRecord
  2
CENTERX2
 70
     0
  3
Center (2x) ________  __  ________  __  _____
 72
    65
 73
     4
 40
20.32
 49
12.7
 74
     0
 49
-2.54
 74
     0
 49
2.54
 74
     0
 49
-2.54
 74
     0
  0
LTYPE
  5
72
330
5
100
AcDbSymbolTableRecord
100
AcDbLinetypeTableRecord
  2
DOT2
 70
     0
  3
Dot (.5x) ........................................
 72
    65
 73
     2
 40
0.635
 49
0.0
 74
     0
 49
-0.635
 74
     0
  0
ENDTAB
  0
TABLE
  2
LAYER
  5
2
330
0
100
AcDbSymbolTable
 70
    17
  0
LAYER
  5
10
330
2
100
AcDbSymbolTableRecord
100
AcDbLayerTableRecord
  2
0
 70
     0
 62
     7
  6
Continuous
370
    -3
390
F
  0
LAYER
  5
73
330
2
100
AcDbSymbolTableRecord
100
AcDbLayerTableRecord
  2
FORMAT
 70
     0
 62
     7
  6
Continuous
370
    -3
390
F
  0
LAYER
  5
74
330
2
100
AcDbSymbolTableRecord
100
AcDbLayerTableRecord
  2
YARDIMCI_GEOMETRI
 70
     0
 62
    -6
  6
Continuous
290
     0
370
    -3
390
F
  0
LAYER
  5
75
330
2
100
AcDbSymbolTableRecord
100
AcDbLayerTableRecord
  2
SAYFA_CERCEVESI
 70
     0
 62
     7
  6
Continuous
370
    25
390
F
  0
LAYER
  5
76
330
2
100
AcDbSymbolTableRecord
100
AcDbLayerTableRecord
  2
ANTET
 70
     0
 62
     7
  6
Continuous
370
    -3
390
F
  0
LAYER
  5
77
330
2
100
AcDbSymbolTableRecord
100
AcDbLayerTableRecord
  2
OLCU
 70
     0
 62
   150
  6
Continuous
370
    -3
390
F
  0
LAYER
  5
78
330
2
100
AcDbSymbolTableRecord
100
AcDbLayerTableRecord
  2
METIN
 70
     0
 62
    96
  6
Continuous
370
    -3
390
F
  0
LAYER
  5
79
330
2
100
AcDbSymbolTableRecord
100
AcDbLayerTableRecord
  2
BALON
 70
     0
 62
     5
  6
Continuous
370
    -3
390
F
  0
LAYER
  5
7A
330
2
100
AcDbSymbolTableRecord
100
AcDbLayerTableRecord
  2
VURGU
 70
     0
 62
     7
  6
Continuous
370
    -3
390
F
  0
LAYER
  5
7B
330
2
100
AcDbSymbolTableRecord
100
AcDbLayerTableRecord
  2
SILIK
 70
     0
 62
     7
  6
Continuous
370
    -3
390
F
  0
LAYER
  5
7C
330
2
100
AcDbSymbolTableRecord
100
AcDbLayerTableRecord
  2
MODEL
 70
     0
 62
     7
  6
Continuous
370
    -3
390
F
  0
LAYER
  5
7D
330
2
100
AcDbSymbolTableRecord
100
AcDbLayerTableRecord
  2
DETAYLANDıRMA
 70
     0
 62
   190
  6
Continuous
370
    -3
390
F
  0
LAYER
  5
7E
330
2
100
AcDbSymbolTableRecord
100
AcDbLayerTableRecord
  2
TOLERANS
 70
     0
 62
   230
  6
Continuous
370
    -3
390
F
  0
LAYER
  5
7F
330
2
100
AcDbSymbolTableRecord
100
AcDbLayerTableRecord
  2
MERKEZ_CIZGILERI
 70
     0
 62
    30
  6
Continuous
370
    -3
390
F
  0
LAYER
  5
80
330
2
100
AcDbSymbolTableRecord
100
AcDbLayerTableRecord
  2
KESIT-DETAY_CIZGILERI
 70
     0
 62
     7
  6
Continuous
370
    -3
390
F
  0
LAYER
  5
81
330
2
100
AcDbSymbolTableRecord
100
AcDbLayerTableRecord
  2
\U+041E\U+0421\U+0415\U+0412\U+042B\U+0415
 70
     0
 62
     7
  6
Continuous
370
    -3
390
F
  0
LAYER
  5
82
330
2
100
AcDbSymbolTableRecord
100
AcDbLayerTableRecord
  2
\U+0412\U+041E\U+0414\U+042F\U+041D\U+042B\U+0415_\U+0417\U+041D\U+0410\U+041A\U+0418
 70
     0
 62
    11
  6
Continuous
370
    -3
390
F
  0
ENDTAB
  0
TABLE
  2
STYLE
  5
3
330
0
100
AcDbSymbolTable
 70
     1
  0
STYLE
  5
11
330
3
100
AcDbSymbolTableRecord
100
AcDbTextStyleTableRecord
  2
Standard
 70
     0
 40
0.0
 41
1.0
 50
0.0
 71
     0
 42
3.5
  3
txt
  4

  0
ENDTAB
  0
TABLE
  2
VIEW
  5
6
330
0
100
AcDbSymbolTable
 70
     0
  0
ENDTAB
  0
TABLE
  2
UCS
  5
7
330
0
100
AcDbSymbolTable
 70
     0
  0
ENDTAB
  0
TABLE
  2
APPID
  5
9
330
0
100
AcDbSymbolTable
 70
     1
  0
APPID
  5
12
330
9
100
AcDbSymbolTableRecord
100
AcDbRegAppTableRecord
  2
ACAD
 70
     0
  0
ENDTAB
  0
TABLE
  2
DIMSTYLE
  5
A
330
0
100
AcDbSymbolTable
 70
     1
100
AcDbDimStyleTable
  0
DIMSTYLE
105
27
330
A
100
AcDbSymbolTableRecord
100
AcDbDimStyleTableRecord
  2
ISO-25
 70
     0
 41
2.5
 42
0.625
 43
3.75
 44
1.25
 73
     0
 74
     0
 77
     1
 78
     8
140
2.5
141
2.5
143
0.0393700787
147
0.625
171
     3
172
     1
178
     0
271
     2
272
     2
274
     3
278
    44
283
     0
284
     8
340
11
  0
ENDTAB
  0
TABLE
  2
BLOCK_RECORD
  5
1
330
0
100
AcDbSymbolTable
 70
     4
  0
BLOCK_RECORD
  5
1F
330
1
100
AcDbSymbolTableRecord
100
AcDbBlockTableRecord
  2
*Model_Space
340
22
  0
BLOCK_RECORD
  5
1B
330
1
100
AcDbSymbolTableRecord
100
AcDbBlockTableRecord
  2
*Paper_Space
340
1E
  0
BLOCK_RECORD
  5
23
330
1
100
AcDbSymbolTableRecord
100
AcDbBlockTableRecord
  2
*Paper_Space0
340
26
  0
BLOCK_RECORD
  5
8C
330
1
100
AcDbSymbolTableRecord
100
AcDbBlockTableRecord
  2
SW_CENTERMARKSYMBOL_0
340
0
102
{BLKREFS
331
97
102
}
  0
BLOCK_RECORD
  5
DE
330
1
100
AcDbSymbolTableRecord
100
AcDbBlockTableRecord
  2
SW_CENTERMARKSYMBOL_1
340
0
102
{BLKREFS
331
E9
102
}
  0
BLOCK_RECORD
  5
EA
330
1
100
AcDbSymbolTableRecord
100
AcDbBlockTableRecord
  2
SW_CENTERMARKSYMBOL_2
340
0
102
{BLKREFS
331
F5
102
}
  0
ENDTAB
  0
ENDSEC
  0
SECTION
  2
BLOCKS
  0
BLOCK
  5
20
330
1F
100
AcDbEntity
  8
0
100
AcDbBlockBegin
  2
*Model_Space
 70
     0
 10
0.0
 20
0.0
 30
0.0
  3
*Model_Space
  1

  0
ENDBLK
  5
21
330
1F
100
AcDbEntity
  8
0
100
AcDbBlockEnd
  0
BLOCK
  5
1C
330
1B
100
AcDbEntity
 67
     1
  8
0
100
AcDbBlockBegin
  2
*Paper_Space
 70
     0
 10
0.0
 20
0.0
 30
0.0
  3
*Paper_Space
  1

  0
ENDBLK
  5
1D
330
1B
100
AcDbEntity
 67
     1
  8
0
100
AcDbBlockEnd
  0
BLOCK
  5
24
330
23
100
AcDbEntity
  8
0
100
AcDbBlockBegin
  2
*Paper_Space0
 70
     0
 10
0.0
 20
0.0
 30
0.0
  3
*Paper_Space0
  1

  0
ENDBLK
  5
25
330
23
100
AcDbEntity
  8
0
100
AcDbBlockEnd
  0
BLOCK
  5
8D
330
8C
100
AcDbEntity
  8
0
100
AcDbBlockBegin
  2
SW_CENTERMARKSYMBOL_0
 70
     0
 10
0.0
 20
0.0
 30
0.0
  3
SW_CENTERMARKSYMBOL_0
  1

  0
LINE
  5
8F
330
8C
100
AcDbEntity
  8
FORMAT
 62
     0
100
AcDbLine
 10
0.0
 20
0.0
 30
0.0
 11
0.0
 21
2.5
 31
0.0
  0
LINE
  5
90
330
8C
100
AcDbEntity
  8
FORMAT
 62
     0
100
AcDbLine
 10
0.0
 20
0.0
 30
0.0
 11
-2.5
 21
0.0
 31
0.0
  0
LINE
  5
91
330
8C
100
AcDbEntity
  8
FORMAT
 62
     0
100
AcDbLine
 10
0.0
 20
0.0
 30
0.0
 11
0.0
 21
-2.5
 31
0.0
  0
LINE
  5
92
330
8C
100
AcDbEntity
  8
FORMAT
 62
     0
100
AcDbLine
 10
0.0
 20
0.0
 30
0.0
 11
2.5
 21
0.0
 31
0.0
  0
LINE
  5
93
330
8C
100
AcDbEntity
  8
FORMAT
 62
     0
100
AcDbLine
 10
0.0
 20
5.0
 30
0.0
 11
0.0
 21
82.5
 31
0.0
  0
LINE
  5
94
330
8C
100
AcDbEntity
  8
FORMAT
 62
     0
100
AcDbLine
 10
-5.0
 20
0.0
 30
0.0
 11
-82.5
 21
0.0
 31
0.0
  0
LINE
  5
95
330
8C
100
AcDbEntity
  8
FORMAT
 62
     0
100
AcDbLine
 10
0.0
 20
-5.0
 30
0.0
 11
0.0
 21
-82.5
 31
0.0
  0
LINE
  5
96
330
8C
100
AcDbEntity
  8
FORMAT
 62
     0
100
AcDbLine
 10
5.0
 20
0.0
 30
0.0
 11
82.5
 21
0.0
 31
0.0
  0
ENDBLK
  5
8E
330
8C
100
AcDbEntity
  8
0
100
AcDbBlockEnd
  0
BLOCK
  5
DF
330
DE
100
AcDbEntity
  8
0
100
AcDbBlockBegin
  2
SW_CENTERMARKSYMBOL_1
 70
     0
 10
0.0
 20
0.0
 30
0.0
  3
SW_CENTERMARKSYMBOL_1
  1

  0
LINE
  5
E1
330
DE
100
AcDbEntity
  8
FORMAT
 62
     0
100
AcDbLine
 10
0.0
 20
0.0
 30
0.0
 11
0.0
 21
2.5
 31
0.0
  0
LINE
  5
E2
330
DE
100
AcDbEntity
  8
FORMAT
 62
     0
100
AcDbLine
 10
0.0
 20
0.0
 30
0.0
 11
-2.5
 21
0.0
 31
0.0
  0
LINE
  5
E3
330
DE
100
AcDbEntity
  8
FORMAT
 62
     0
100
AcDbLine
 10
0.0
 20
0.0
 30
0.0
 11
0.0
 21
-2.5
 31
0.0
  0
LINE
  5
E4
330
DE
100
AcDbEntity
  8
FORMAT
 62
     0
100
AcDbLine
 10
0.0
 20
0.0
 30
0.0
 11
2.5
 21
0.0
 31
0.0
  0
LINE
  5
E5
330
DE
100
AcDbEntity
  8
FORMAT
 62
     0
100
AcDbLine
 10
0.0
 20
5.0
 30
0.0
 11
0.0
 21
9.5
 31
0.0
  0
LINE
  5
E6
330
DE
100
AcDbEntity
  8
FORMAT
 62
     0
100
AcDbLine
 10
-5.0
 20
0.0
 30
0.0
 11
-9.5
 21
0.0
 31
0.0
  0
LINE
  5
E7
330
DE
100
AcDbEntity
  8
FORMAT
 62
     0
100
AcDbLine
 10
0.0
 20
-5.0
 30
0.0
 11
0.0
 21
-9.5
 31
0.0
  0
LINE
  5
E8
330
DE
100
AcDbEntity
  8
FORMAT
 62
     0
100
AcDbLine
 10
5.0
 20
0.0
 30
0.0
 11
9.5
 21
0.0
 31
0.0
  0
ENDBLK
  5
E0
330
DE
100
AcDbEntity
  8
0
100
AcDbBlockEnd
  0
BLOCK
  5
EB
330
EA
100
AcDbEntity
  8
0
100
AcDbBlockBegin
  2
SW_CENTERMARKSYMBOL_2
 70
     0
 10
0.0
 20
0.0
 30
0.0
  3
SW_CENTERMARKSYMBOL_2
  1

  0
LINE
  5
ED
330
EA
100
AcDbEntity
  8
FORMAT
 62
     0
100
AcDbLine
 10
0.0
 20
0.0
 30
0.0
 11
0.0
 21
2.5
 31
0.0
  0
LINE
  5
EE
330
EA
100
AcDbEntity
  8
FORMAT
 62
     0
100
AcDbLine
 10
0.0
 20
0.0
 30
0.0
 11
-2.5
 21
0.0
 31
0.0
  0
LINE
  5
EF
330
EA
100
AcDbEntity
  8
FORMAT
 62
     0
100
AcDbLine
 10
0.0
 20
0.0
 30
0.0
 11
0.0
 21
-2.5
 31
0.0
  0
LINE
  5
F0
330
EA
100
AcDbEntity
  8
FORMAT
 62
     0
100
AcDbLine
 10
0.0
 20
0.0
 30
0.0
 11
2.5
 21
0.0
 31
0.0
  0
LINE
  5
F1
330
EA
100
AcDbEntity
  8
FORMAT
 62
     0
100
AcDbLine
 10
0.0
 20
5.0
 30
0.0
 11
0.0
 21
9.5
 31
0.0
  0
LINE
  5
F2
330
EA
100
AcDbEntity
  8
FORMAT
 62
     0
100
AcDbLine
 10
-5.0
 20
0.0
 30
0.0
 11
-9.5
 21
0.0
 31
0.0
  0
LINE
  5
F3
330
EA
100
AcDbEntity
  8
FORMAT
 62
     0
100
AcDbLine
 10
0.0
 20
-5.0
 30
0.0
 11
0.0
 21
-9.5
 31
0.0
  0
LINE
  5
F4
330
EA
100
AcDbEntity
  8
FORMAT
 62
     0
100
AcDbLine
 10
5.0
 20
0.0
 30
0.0
 11
9.5
 21
0.0
 31
0.0
  0
ENDBLK
  5
EC
330
EA
100
AcDbEntity
  8
0
100
AcDbBlockEnd
  0
ENDSEC
  0
SECTION
  2
ENTITIES
  0
LINE
  5
83
330
1F
100
AcDbEntity
  8
0
  6
Continuous
 62
     7
370
    25
100
AcDbLine
 10
149.5110777177
 20
199.7777279739
 30
0.0
 11
149.5110777177
 21
213.9777423832
 31
0.0
  0
LINE
  5
84
330
1F
100
AcDbEntity
  8
0
  6
Continuous
 62
     7
370
    25
100
AcDbLine
 10
135.5110777177
 20
213.9777423832
 30
0.0
 11
135.5110777177
 21
199.7716528407
 31
0.0
  0
CIRCLE
  5
85
330
1F
100
AcDbEntity
  8
0
  6
Continuous
 62
     7
370
    25
100
AcDbCircle
 10
142.5110777177
 20
104.2277423832
 30
0.0
 40
95.5
  0
ARC
  5
86
330
1F
100
AcDbEntity
  8
0
  6
Continuous
 62
     7
370
    25
100
AcDbCircle
 10
142.5110777177
 20
104.2277423832
 30
0.0
 40
96.49999999999982
100
AcDbArc
 50
94.159824075
 51
180.0
  0
ARC
  5
87
330
1F
100
AcDbEntity
  8
0
  6
Continuous
 62
     7
370
    25
100
AcDbCircle
 10
142.5110777177
 20
104.2277423832
 30
0.0
 40
96.49999999999982
100
AcDbArc
 50
180.0
 51
85.840175925
  0
SPLINE
  5
88
330
1F
100
AcDbEntity
  8
0
  6
Continuous
 62
     7
370
    25
100
AcDbSpline
210
0.0
220
0.0
230
1.0
 70
     8
 71
     3
 72
    14
 73
    10
 74
     0
 42
0.00000001
 43
0.00000001
 40
0.0
 40
0.0
 40
0.0
 40
0.0
 40
0.1429809230504607
 40
0.2859648822713749
 40
0.4288500473904958
 40
0.571654815032721
 40
0.7145855847454385
 40
0.8575894099571372
 40
1.0
 40
1.0
 40
1.0
 40
1.0
 10
147.4780767135653
 20
199.7818307631024
 30
0.0
 10
146.8685680821193
 20
199.798155175469
 30
0.0
 10
145.6495378764369
 20
199.8308043468477
 30
0.0
 10
143.3170287025783
 20
199.8636146067657
 30
0.0
 10
140.9357270523672
 20
199.8568534869138
 30
0.0
 10
138.7177487859834
 20
199.8152615979923
 30
0.0
 10
136.9444890266548
 20
199.7647917814541
 30
0.0
 10
135.7414444873768
 20
199.734545555635
 30
0.0
 10
135.5884969698264
 20
199.7593008970259
 30
0.0
 10
135.5121821621089
 20
199.7716528406762
 30
0.0
  0
SPLINE
  5
89
330
1F
100
AcDbEntity
  8
0
  6
Continuous
 62
     7
370
    25
100
AcDbSpline
210
0.0
220
0.0
230
1.0
 70
     8
 71
     3
 72
    10
 73
     6
 74
     0
 42
0.00000001
 43
0.00000001
 40
0.0
 40
0.0
 40
0.0
 40
0.0
 40
0.2936684040749326
 40
0.7237305531255085
 40
1.0
 40
1.0
 40
1.0
 40
1.0
 10
149.4248354984434
 20
199.7777279738539
 30
0.0
 10
149.422672286641
 20
199.765611478345
 30
0.0
 10
149.4173411633313
 20
199.7357510034864
 30
0.0
 10
148.6465311872523
 20
199.750183213114
 30
0.0
 10
147.8066009640829
 20
199.7729326948637
 30
0.0
 10
147.4780767135653
 20
199.7818307631024
 30
0.0
  0
CIRCLE
  5
8A
330
1F
100
AcDbEntity
  8
0
  6
Continuous
 62
     7
370
    25
100
AcDbCircle
 10
142.5110777177
 20
104.2277423832
 30
0.0
 40
80.0
  0
LINE
  5
8B
330
1F
100
AcDbEntity
  8
0
  6
Continuous
 62
     7
370
    25
100
AcDbLine
 10
149.5110777177
 20
213.9777423832
 30
0.0
 11
135.5110777177
 21
213.9777423832
 31
0.0
  0
INSERT
  5
97
330
1F
100
AcDbEntity
  8
FORMAT
 62
     7
100
AcDbBlockReference
  2
SW_CENTERMARKSYMBOL_0
 10
142.5110777177
 20
104.2277423832
 30
0.0
  0
ARC
  5
98
330
1F
100
AcDbEntity
  8
0
  6
Continuous
 62
     7
370
    25
100
AcDbCircle
 10
389.7969796577
 20
-2500.8972576169
 30
0.0
 40
2701.625000000005
100
AcDbArc
 50
91.4510729436
 51
91.5589726422
  0
ARC
  5
99
330
1F
100
AcDbEntity
  8
0
  6
Continuous
 62
     7
370
    25
100
AcDbCircle
 10
389.7969796577
 20
-2500.8972576169
 30
0.0
 40
2701.625000000005
100
AcDbArc
 50
90.0
 51
91.1578496123
  0
ARC
  5
9A
330
1F
100
AcDbEntity
  8
0
  6
Continuous
 62
     7
370
    25
100
AcDbCircle
 10
389.7969796577
 20
2709.3527423832
 30
0.0
 40
2701.625000000005
100
AcDbArc
 50
268.4410273578
 51
270.0
  0
LINE
  5
9B
330
1F
100
AcDbEntity
  8
0
  6
Continuous
 62
     7
370
    25
100
AcDbLine
 10
389.7969796577
 20
7.7277423832
 30
0.0
 11
414.7969796577
 21
7.7277423832
 31
0.0
  0
LINE
  5
9C
330
1F
100
AcDbEntity
  8
0
  6
Continuous
 62
     7
370
    25
100
AcDbLine
 10
414.7969796577
 20
200.7277423832
 30
0.0
 11
389.7969796577
 21
200.7277423832
 31
0.0
  0
ARC
  5
9D
330
1F
100
AcDbEntity
  8
0
  6
Continuous
 62
     7
370
    25
100
AcDbCircle
 10
414.7969796577
 20
-2500.8972576169
 30
0.0
 40
2701.625000000004
100
AcDbArc
 50
88.8421904605
 51
90.0
  0
ARC
  5
9E
330
1F
100
AcDbEntity
  8
0
  6
Continuous
 62
     7
370
    25
100
AcDbCircle
 10
414.7969796577
 20
-2500.8972576169
 30
0.0
 40
2701.625000000005
100
AcDbArc
 50
88.4410273578
 51
88.5489864732
  0
ARC
  5
9F
330
1F
100
AcDbEntity
  8
0
  6
Continuous
 62
     7
370
    25
100
AcDbCircle
 10
414.7969796577
 20
2709.3527423832
 30
0.0
 40
2701.625000000005
100
AcDbArc
 50
270.0
 51
271.5589726422
  0
LINE
  5
A0
330
1F
100
AcDbEntity
  8
0
  6
Continuous
 62
     7
370
    25
100
AcDbLine
 10
335.2969796577
 20
200.169546189
 30
0.0
 11
335.2969796577
 21
213.9777423832
 31
0.0
  0
LINE
  5
A1
330
1F
100
AcDbEntity
  8
0
  6
Continuous
 62
     7
370
    25
100
AcDbLine
 10
321.2969796577
 20
213.9777423832
 30
0.0
 11
321.2969796577
 21
199.8551472816
 31
0.0
  0
LINE
  5
A2
330
1F
100
AcDbEntity
  8
0
  6
Continuous
 62
     7
370
    25
100
AcDbLine
 10
483.2969796577
 20
199.8550036196
 30
0.0
 11
483.2969796577
 21
213.9777423832
 31
0.0
  0
LINE
  5
A3
330
1F
100
AcDbEntity
  8
0
  6
Continuous
 62
     7
370
    25
100
AcDbLine
 10
469.2969796577
 20
213.9777423832
 30
0.0
 11
469.2969796577
 21
200.169716426
 31
0.0
  0
LINE
  5
A4
330
1F
100
AcDbEntity
  8
0
  6
Continuous
 62
     7
370
    25
100
AcDbLine
 10
316.2969796577
 20
104.2277423832
 30
0.0
 11
316.2969796577
 21
199.7277423832
 31
0.0
  0
LINE
  5
A5
330
1F
100
AcDbEntity
  8
0
  6
Continuous
 62
     7
370
    25
100
AcDbLine
 10
316.2969796577
 20
8.7277423832
 30
0.0
 11
316.2969796577
 21
104.2277423832
 31
0.0
  0
SPLINE
  5
A6
330
1F
100
AcDbEntity
  8
0
  6
Continuous
 62
     7
370
    25
100
AcDbSpline
210
0.0
220
0.0
230
1.0
 70
     8
 71
     3
 72
    17
 73
    13
 74
     0
 42
0.00000001
 43
0.00000001
 40
0.0
 40
0.0
 40
0.0
 40
0.0
 40
0.068364099064549
 40
0.1752958502072135
 40
0.2825030549962929
 40
0.3900896392504169
 40
0.4976954638369874
 40
0.6050050184193971
 40
0.7121370808758521
 40
0.8193880963537408
 40
0.9267926138864765
 40
0.9999999999999999
 40
0.9999999999999999
 40
0.9999999999999999
 40
0.9999999999999999
 10
335.205711768227
 20
200.1695265235248
 30
0.0
 10
335.2102148417832
 20
200.1699069292365
 30
0.0
 10
335.2217614008451
 20
200.1708823467959
 30
0.0
 10
334.3527717153821
 20
200.091819853807
 30
0.0
 10
332.8043731113639
 20
199.9712617329846
 30
0.0
 10
330.7134170458396
 20
199.8475188735127
 30
0.0
 10
328.355161633685
 20
199.7632126383984
 30
0.0
 10
325.9923182767785
 20
199.7370139699792
 30
0.0
 10
323.8842768150518
 20
199.7633613608915
 30
0.0
 10
322.30124316109
 20
199.8133775022411
 30
0.0
 10
321.3899714161066
 20
199.8546305580403
 30
0.0
 10
321.3850733598363
 20
199.8549871514089
 30
0.0
 10
321.383088031686
 20
199.8551316893263
 30
0.0
  0
LINE
  5
A7
330
1F
100
AcDbEntity
  8
0
  6
Continuous
 62
     7
370
    25
100
AcDbLine
 10
488.2969796577
 20
104.2277423832
 30
0.0
 11
488.2969796577
 21
199.7277423832
 31
0.0
  0
LINE
  5
A8
330
1F
100
AcDbEntity
  8
0
  6
Continuous
 62
     7
370
    25
100
AcDbLine
 10
488.2969796577
 20
8.7277423832
 30
0.0
 11
488.2969796577
 21
104.2277423832
 31
0.0
  0
SPLINE
  5
A9
330
1F
100
AcDbEntity
  8
0
  6
Continuous
 62
     7
370
    25
100
AcDbSpline
210
0.0
220
0.0
230
1.0
 70
     8
 71
     3
 72
    17
 73
    13
 74
     0
 42
0.00000001
 43
0.00000001
 40
0.0
 40
0.0
 40
0.0
 40
0.0
 40
0.0708380590831988
 40
0.1780996474843663
 40
0.2854558768589831
 40
0.392866978693333
 40
0.5001341974569167
 40
0.6072676622852581
 40
0.7145568516047401
 40
0.8221488821531292
 40
0.9297558717927862
 40
1.0
 40
1.0
 40
1.0
 40
1.0
 10
483.2079615134539
 20
199.8549904902503
 30
0.0
 10
483.2093366930317
 20
199.8550119386832
 30
0.0
 10
483.2127941423349
 20
199.8550658639091
 30
0.0
 10
482.3211292166694
 20
199.8145255519629
 30
0.0
 10
480.7516863927968
 20
199.7643390238574
 30
0.0
 10
478.6491874905264
 20
199.7370649700007
 30
0.0
 10
476.2908746908553
 20
199.7620553534226
 30
0.0
 10
473.9357760870913
 20
199.8449405071175
 30
0.0
 10
471.8374682291094
 20
199.9679078386784
 30
0.0
 10
470.2688888372404
 20
200.0894057121415
 30
0.0
 10
469.3791331951762
 20
200.1702268788599
 30
0.0
 10
469.3844092745571
 20
200.1698431803183
 30
0.0
 10
469.3864931163735
 20
200.169691634633
 30
0.0
  0
LINE
  5
AA
330
1F
100
AcDbEntity
  8
0
  6
Continuous
 62
     7
370
    25
100
AcDbLine
 10
335.2969796577
 20
213.9777423832
 30
0.0
 11
321.2969796577
 21
213.9777423832
 31
0.0
  0
LINE
  5
AB
330
1F
100
AcDbEntity
  8
0
  6
Continuous
 62
     7
370
    25
100
AcDbLine
 10
483.2969796577
 20
213.9777423832
 30
0.0
 11
469.2969796577
 21
213.9777423832
 31
0.0
  0
LINE
  5
AC
330
1F
100
AcDbEntity
  8
0
  6
Continuous
 62
     1
370
    25
100
AcDbLine
 10
389.7969796577
 20
104.2277423832
 30
0.0
 11
389.7969796577
 21
200.7277423832
 31
0.0
  0
LINE
  5
AD
330
1F
100
AcDbEntity
  8
0
  6
Continuous
 62
     1
370
    25
100
AcDbLine
 10
389.7969796577
 20
7.7277423832
 30
0.0
 11
389.7969796577
 21
104.2277423832
 31
0.0
  0
LINE
  5
AE
330
1F
100
AcDbEntity
  8
0
  6
Continuous
 62
     1
370
    25
100
AcDbLine
 10
414.7969796577
 20
104.2277423832
 30
0.0
 11
414.7969796577
 21
200.7277423832
 31
0.0
  0
LINE
  5
AF
330
1F
100
AcDbEntity
  8
0
  6
Continuous
 62
     1
370
    25
100
AcDbLine
 10
414.7969796577
 20
7.7277423832
 30
0.0
 11
414.7969796577
 21
104.2277423832
 31
0.0
  0
ARC
  5
B0
330
1F
100
AcDbEntity
  8
0
  6
Continuous
 62
     7
370
    25
100
AcDbCircle
 10
2747.6360777177
 20
365.0454881733
 30
0.0
 40
2701.625000000004
100
AcDbArc
 50
180.0
 51
181.5589726422
  0
ARC
  5
B1
330
1F
100
AcDbEntity
  8
0
  6
Continuous
 62
     7
370
    25
100
AcDbCircle
 10
-2462.6139222823
 20
365.0454881733
 30
0.0
 40
2701.625000000005
100
AcDbArc
 50
358.4410273578
 51
0.0
  0
LINE
  5
B2
330
1F
100
AcDbEntity
  8
0
  6
Continuous
 62
     7
370
    25
100
AcDbLine
 10
239.0110777177
 20
365.0454881733
 30
0.0
 11
239.0110777177
 21
390.0454881733
 31
0.0
  0
LINE
  5
B3
330
1F
100
AcDbEntity
  8
0
  6
Continuous
 62
     7
370
    25
100
AcDbLine
 10
46.0110777177
 20
390.0454881733
 30
0.0
 11
46.0110777177
 21
365.0454881733
 31
0.0
  0
ARC
  5
B4
330
1F
100
AcDbEntity
  8
0
  6
Continuous
 62
     7
370
    25
100
AcDbCircle
 10
2747.6360777177
 20
390.0454881733
 30
0.0
 40
2701.625000000004
100
AcDbArc
 50
178.4410273578
 51
180.0
  0
ARC
  5
B5
330
1F
100
AcDbEntity
  8
0
  6
Continuous
 62
     7
370
    25
100
AcDbCircle
 10
-2462.6139222823
 20
390.0454881733
 30
0.0
 40
2701.625000000005
100
AcDbArc
 50
0.0
 51
1.5589726422
  0
LINE
  5
B6
330
1F
100
AcDbEntity
  8
0
  6
Continuous
 62
     7
370
    25
100
AcDbLine
 10
238.0110777177
 20
291.5454881733
 30
0.0
 11
47.0110777177
 21
291.5454881733
 31
0.0
  0
LINE
  5
B7
330
1F
100
AcDbEntity
  8
0
  6
Continuous
 62
     7
370
    25
100
AcDbLine
 10
238.0110777177
 20
463.5454881733
 30
0.0
 11
47.0110777177
 21
463.5454881733
 31
0.0
  0
LINE
  5
B8
330
1F
100
AcDbEntity
  8
0
  6
Continuous
 62
     1
370
    25
100
AcDbLine
 10
239.0110777177
 20
365.0454881733
 30
0.0
 11
46.0110777177
 21
365.0454881733
 31
0.0
  0
LINE
  5
B9
330
1F
100
AcDbEntity
  8
0
  6
Continuous
 62
     1
370
    25
100
AcDbLine
 10
239.0110777177
 20
390.0454881733
 30
0.0
 11
46.0110777177
 21
390.0454881733
 31
0.0
  0
ARC
  5
BA
330
1F
100
AcDbEntity
  8
0
  6
Continuous
 62
     7
370
    25
100
AcDbCircle
 10
-128.8123236106
 20
2709.3527423832
 30
0.0
 40
2701.625000000005
100
AcDbArc
 50
270.0
 51
271.5589726422
  0
ARC
  5
BB
330
1F
100
AcDbEntity
  8
0
  6
Continuous
 62
     7
370
    25
100
AcDbCircle
 10
-128.8123236106
 20
-2500.8972576169
 30
0.0
 40
2701.625000000005
100
AcDbArc
 50
88.8421531027
 51
90.0
  0
ARC
  5
BC
330
1F
100
AcDbEntity
  8
0
  6
Continuous
 62
     7
370
    25
100
AcDbCircle
 10
-128.8123236106
 20
-2500.8972576169
 30
0.0
 40
2701.625000000005
100
AcDbArc
 50
88.4410273578
 51
88.5489252085
  0
LINE
  5
BD
330
1F
100
AcDbEntity
  8
0
  6
Continuous
 62
     7
370
    25
100
AcDbLine
 10
-128.8123236106
 20
200.7277423832
 30
0.0
 11
-153.8123236106
 21
200.7277423832
 31
0.0
  0
LINE
  5
BE
330
1F
100
AcDbEntity
  8
0
  6
Continuous
 62
     7
370
    25
100
AcDbLine
 10
-153.8123236106
 20
7.7277423832
 30
0.0
 11
-128.8123236106
 21
7.7277423832
 31
0.0
  0
ARC
  5
BF
330
1F
100
AcDbEntity
  8
0
  6
Continuous
 62
     7
370
    25
100
AcDbCircle
 10
-153.8123236106
 20
2709.3527423832
 30
0.0
 40
2701.625000000005
100
AcDbArc
 50
268.4410273578
 51
270.0
  0
ARC
  5
C0
330
1F
100
AcDbEntity
  8
0
  6
Continuous
 62
     7
370
    25
100
AcDbCircle
 10
-153.8123236106
 20
-2500.8972576169
 30
0.0
 40
2701.625000000005
100
AcDbArc
 50
91.4510116535
 51
91.5589726422
  0
ARC
  5
C1
330
1F
100
AcDbEntity
  8
0
  6
Continuous
 62
     7
370
    25
100
AcDbCircle
 10
-153.8123236106
 20
-2500.8972576169
 30
0.0
 40
2701.625000000005
100
AcDbArc
 50
90.0
 51
91.1578122499
  0
LINE
  5
C2
330
1F
100
AcDbEntity
  8
0
  6
Continuous
 62
     7
370
    25
100
AcDbLine
 10
-60.3123236106
 20
199.8551472816
 30
0.0
 11
-60.3123236106
 21
213.9777423832
 31
0.0
  0
LINE
  5
C3
330
1F
100
AcDbEntity
  8
0
  6
Continuous
 62
     7
370
    25
100
AcDbLine
 10
-74.3123236106
 20
213.9777423832
 30
0.0
 11
-74.3123236106
 21
200.169546189
 31
0.0
  0
LINE
  5
C4
330
1F
100
AcDbEntity
  8
0
  6
Continuous
 62
     7
370
    25
100
AcDbLine
 10
-208.3123236106
 20
200.169716426
 30
0.0
 11
-208.3123236106
 21
213.9777423832
 31
0.0
  0
LINE
  5
C5
330
1F
100
AcDbEntity
  8
0
  6
Continuous
 62
     7
370
    25
100
AcDbLine
 10
-222.3123236106
 20
213.9777423832
 30
0.0
 11
-222.3123236106
 21
199.8550036196
 31
0.0
  0
LINE
  5
C6
330
1F
100
AcDbEntity
  8
0
  6
Continuous
 62
     7
370
    25
100
AcDbLine
 10
-55.3123236106
 20
199.7277423832
 30
0.0
 11
-55.3123236106
 21
8.7277423832
 31
0.0
  0
SPLINE
  5
C7
330
1F
100
AcDbEntity
  8
0
  6
Continuous
 62
     7
370
    25
100
AcDbSpline
210
0.0
220
0.0
230
1.0
 70
     8
 71
     3
 72
    10
 73
     6
 74
     0
 42
0.00000001
 43
0.00000001
 40
0.0
 40
0.0
 40
0.0
 40
0.0
 40
0.4235578514473575
 40
0.8471623631793318
 40
1.0
 40
1.0
 40
1.0
 40
1.0
 10
-72.21030493510884
 20
200.0042656620818
 30
0.0
 10
-72.70820754491034
 20
200.0426986830236
 30
0.0
 10
-73.70406761481868
 20
200.1195689587932
 30
0.0
 10
-74.33516469395398
 20
200.180211993966
 30
0.0
 10
-74.24496682521247
 20
200.1717656283513
 30
0.0
 10
-74.22105179897902
 20
200.1695261624075
 30
0.0
  0
SPLINE
  5
C8
330
1F
100
AcDbEntity
  8
0
  6
Continuous
 62
     7
370
    25
100
AcDbSpline
210
0.0
220
0.0
230
1.0
 70
     8
 71
     3
 72
    15
 73
    11
 74
     0
 42
0.00000001
 43
0.00000001
 40
0.0
 40
0.0
 40
0.0
 40
0.0
 40
0.0457248074626796
 40
0.1892668626425794
 40
0.3328754677179224
 40
0.476617392929927
 40
0.6202526648866423
 40
0.7636497628034072
 40
0.9071070744304949
 40
1.0
 40
1.0
 40
1.0
 40
1.0
 10
-60.39844937995104
 20
199.8551308769446
 30
0.0
 10
-60.37408307633545
 20
199.8562774566578
 30
0.0
 10
-60.27322461250739
 20
199.8610234481039
 30
0.0
 10
-60.90501593228699
 20
199.8307994743472
 30
0.0
 10
-62.23627954525016
 20
199.7812589293585
 30
0.0
 10
-64.19503205964611
 20
199.7415106739562
 30
0.0
 10
-66.4918994183821
 20
199.7467019413581
 30
0.0
 10
-68.87348098368032
 20
199.8103684755967
 30
0.0
 10
-70.84655328173191
 20
199.910032243807
 30
0.0
 10
-71.82553496823051
 20
199.9776785711414
 30
0.0
 10
-72.21030493510885
 20
200.0042656620818
 30
0.0
  0
LINE
  5
C9
330
1F
100
AcDbEntity
  8
0
  6
Continuous
 62
     7
370
    25
100
AcDbLine
 10
-227.3123236106
 20
199.7277423832
 30
0.0
 11
-227.3123236106
 21
8.7277423832
 31
0.0
  0
SPLINE
  5
CA
330
1F
100
AcDbEntity
  8
0
  6
Continuous
 62
     7
370
    25
100
AcDbSpline
210
0.0
220
0.0
230
1.0
 70
     8
 71
     3
 72
    10
 73
     6
 74
     0
 42
0.00000001
 43
0.00000001
 40
0.0
 40
0.0
 40
0.0
 40
0.0
 40
0.4274168543884548
 40
0.8548427848857849
 40
1.0
 40
1.0
 40
1.0
 40
1.0
 10
-220.2447592133448
 20
199.7818307631027
 30
0.0
 10
-220.7384680686021
 20
199.7976571275863
 30
0.0
 10
-221.7258962629224
 20
199.829310192623
 30
0.0
 10
-222.3424274889198
 20
199.8607300792001
 30
0.0
 10
-222.2474077075652
 20
199.8561517792636
 30
0.0
 10
-222.2233189670077
 20
199.8549911211586
 30
0.0
  0
SPLINE
  5
CB
330
1F
100
AcDbEntity
  8
0
  6
Continuous
 62
     7
370
    25
100
AcDbSpline
210
0.0
220
0.0
230
1.0
 70
     8
 71
     3
 72
    15
 73
    11
 74
     0
 42
0.00000001
 43
0.00000001
 40
0.0
 40
0.0
 40
0.0
 40
0.0
 40
0.0493512841267576
 40
0.1920191953682538
 40
0.3348909334618029
 40
0.4783058029070869
 40
0.6219211935510781
 40
0.7652134569828134
 40
0.9081672846760016
 40
1.0
 40
1.0
 40
1.0
 40
1.0
 10
-208.4018321285297
 20
200.1696920894237
 30
0.0
 10
-208.3773422128141
 20
200.1719548810019
 30
0.0
 10
-208.2820552513188
 20
200.180759098072
 30
0.0
 10
-208.9287168397307
 20
200.1206167023281
 30
0.0
 10
-210.2731906132913
 20
200.0099769461472
 30
0.0
 10
-212.2391688341243
 20
199.8813726655115
 30
0.0
 10
-214.543505103656
 20
199.7825205478427
 30
0.0
 10
-216.9285482492667
 20
199.7386959974726
 30
0.0
 10
-218.8947605527592
 20
199.7494499561891
 30
0.0
 10
-219.8651917520905
 20
199.7727265313487
 30
0.0
 10
-220.2447592133448
 20
199.7818307631027
 30
0.0
  0
LINE
  5
CC
330
1F
100
AcDbEntity
  8
0
  6
Continuous
 62
     7
370
    25
100
AcDbLine
 10
-60.3123236106
 20
213.9777423832
 30
0.0
 11
-74.3123236106
 21
213.9777423832
 31
0.0
  0
LINE
  5
CD
330
1F
100
AcDbEntity
  8
0
  6
Continuous
 62
     7
370
    25
100
AcDbLine
 10
-208.3123236106
 20
213.9777423832
 30
0.0
 11
-222.3123236106
 21
213.9777423832
 31
0.0
  0
LINE
  5
CE
330
1F
100
AcDbEntity
  8
0
  6
Continuous
 62
     1
370
    25
100
AcDbLine
 10
-128.8123236106
 20
200.7277423832
 30
0.0
 11
-128.8123236106
 21
7.7277423832
 31
0.0
  0
LINE
  5
CF
330
1F
100
AcDbEntity
  8
0
  6
Continuous
 62
     1
370
    25
100
AcDbLine
 10
-153.8123236106
 20
200.7277423832
 30
0.0
 11
-153.8123236106
 21
7.7277423832
 31
0.0
  0
ARC
  5
D0
330
1F
100
AcDbEntity
  8
0
  6
Continuous
 62
     7
370
    25
100
AcDbCircle
 10
-2462.6139222823
 20
-147.6542595795
 30
0.0
 40
2701.625000000005
100
AcDbArc
 50
0.0
 51
1.5589726422
  0
ARC
  5
D1
330
1F
100
AcDbEntity
  8
0
  6
Continuous
 62
     7
370
    25
100
AcDbCircle
 10
2747.6360777177
 20
-147.6542595795
 30
0.0
 40
2701.625000000004
100
AcDbArc
 50
178.4410273578
 51
180.0
  0
LINE
  5
D2
330
1F
100
AcDbEntity
  8
0
  6
Continuous
 62
     7
370
    25
100
AcDbLine
 10
46.0110777177
 20
-147.6542595795
 30
0.0
 11
46.0110777177
 21
-172.6542595795
 31
0.0
  0
LINE
  5
D3
330
1F
100
AcDbEntity
  8
0
  6
Continuous
 62
     7
370
    25
100
AcDbLine
 10
239.0110777177
 20
-172.6542595795
 30
0.0
 11
239.0110777177
 21
-147.6542595795
 31
0.0
  0
ARC
  5
D4
330
1F
100
AcDbEntity
  8
0
  6
Continuous
 62
     7
370
    25
100
AcDbCircle
 10
-2462.6139222823
 20
-172.6542595795
 30
0.0
 40
2701.625000000005
100
AcDbArc
 50
358.4410273578
 51
0.0
  0
ARC
  5
D5
330
1F
100
AcDbEntity
  8
0
  6
Continuous
 62
     7
370
    25
100
AcDbCircle
 10
2747.6360777177
 20
-172.6542595795
 30
0.0
 40
2701.625000000004
100
AcDbArc
 50
180.0
 51
181.5589726422
  0
CIRCLE
  5
D6
330
1F
100
AcDbEntity
  8
0
  6
Continuous
 62
     7
370
    25
100
AcDbCircle
 10
142.5110777177
 20
-86.1542595795
 30
0.0
 40
7.000000000000014
  0
CIRCLE
  5
D7
330
1F
100
AcDbEntity
  8
0
  6
Continuous
 62
     7
370
    25
100
AcDbCircle
 10
142.5110777177
 20
-86.1542595795
 30
0.0
 40
5.0
  0
CIRCLE
  5
D8
330
1F
100
AcDbEntity
  8
0
  6
Continuous
 62
     7
370
    25
100
AcDbCircle
 10
142.5110777177
 20
-234.1542595795
 30
0.0
 40
7.000000000000028
  0
CIRCLE
  5
D9
330
1F
100
AcDbEntity
  8
0
  6
Continuous
 62
     7
370
    25
100
AcDbCircle
 10
142.5110777177
 20
-234.1542595795
 30
0.0
 40
5.0
  0
LINE
  5
DA
330
1F
100
AcDbEntity
  8
0
  6
Continuous
 62
     7
370
    25
100
AcDbLine
 10
47.0110777177
 20
-74.1542595795
 30
0.0
 11
238.0110777177
 21
-74.1542595795
 31
0.0
  0
LINE
  5
DB
330
1F
100
AcDbEntity
  8
0
  6
Continuous
 62
     7
370
    25
100
AcDbLine
 10
47.0110777177
 20
-246.1542595795
 30
0.0
 11
238.0110777177
 21
-246.1542595795
 31
0.0
  0
LINE
  5
DC
330
1F
100
AcDbEntity
  8
0
  6
Continuous
 62
     1
370
    25
100
AcDbLine
 10
46.0110777177
 20
-147.6542595795
 30
0.0
 11
239.0110777177
 21
-147.6542595795
 31
0.0
  0
LINE
  5
DD
330
1F
100
AcDbEntity
  8
0
  6
Continuous
 62
     1
370
    25
100
AcDbLine
 10
46.0110777177
 20
-172.6542595795
 30
0.0
 11
239.0110777177
 21
-172.6542595795
 31
0.0
  0
INSERT
  5
E9
330
1F
100
AcDbEntity
  8
FORMAT
 62
     7
100
AcDbBlockReference
  2
SW_CENTERMARKSYMBOL_1
 10
142.5110777177
 20
-86.1542595795
 30
0.0
  0
INSERT
  5
F5
330
1F
100
AcDbEntity
  8
FORMAT
 62
     7
100
AcDbBlockReference
  2
SW_CENTERMARKSYMBOL_2
 10
142.5110777177
 20
-234.1542595795
 30
0.0
  0
SPLINE
  5
F6
330
1F
100
AcDbEntity
  8
0
  6
Continuous
 62
     7
370
    25
100
AcDbSpline
210
0.0
220
0.0
230
1.0
 70
     8
 71
     3
 72
    11
 73
     7
 74
     0
 42
0.00000001
 43
0.00000001
 40
0.0
 40
0.0
 40
0.0
 40
0.0
 40
0.1071252500975796
 40
0.4234233075761383
 40
0.7396551545344365
 40
1.0
 40
1.0
 40
1.0
 40
1.0
 10
372.8910838119829
 20
-88.61987958937162
 30
0.0
 10
370.9986784019246
 20
-89.70505107191924
 30
0.0
 10
363.5187560001381
 20
-93.99430031996366
 30
0.0
 10
350.5596328824801
 20
-101.6712049652964
 30
0.0
 10
334.9792943455182
 20
-111.0413551929498
 30
0.0
 10
325.0070929486074
 20
-117.2324677075219
 30
0.0
 10
320.5042899984637
 20
-120.0279747962499
 30
0.0
  0
SPLINE
  5
F7
330
1F
100
AcDbEntity
  8
0
  6
Continuous
 62
     7
370
    25
100
AcDbSpline
210
0.0
220
0.0
230
1.0
 70
     8
 71
     3
 72
    11
 73
     7
 74
     0
 42
0.00000001
 43
0.00000001
 40
0.0
 40
0.0
 40
0.0
 40
0.0
 40
0.1580424419852037
 40
0.4744218930223694
 40
0.7907880125312337
 40
1.0
 40
1.0
 40
1.0
 40
1.0
 10
415.9578953324033
 20
-285.3781995775427
 30
0.0
 10
418.7986066785068
 20
-283.8679107514924
 30
0.0
 10
427.3260353705709
 20
-279.3342293247501
 30
0.0
 10
441.4358530868992
 20
-271.5755231785966
 30
0.0
 10
456.4024848645232
 20
-263.2111755560179
 30
0.0
 10
465.6709490904003
 20
-257.8585153576308
 30
0.0
 10
469.3603604181088
 20
-255.7278317095062
 30
0.0
  0
LINE
  5
F8
330
1F
100
AcDbEntity
  8
0
  6
Continuous
 62
     7
370
    25
100
AcDbLine
 10
390.5573594518
 20
-78.3950122033
 30
0.0
 11
372.8796899221
 21
-88.6001136011
 31
0.0
  0
LINE
  5
F9
330
1F
100
AcDbEntity
  8
0
  6
Continuous
 62
     7
370
    25
100
AcDbLine
 10
469.3718476215
 20
-255.7475440405
 30
0.0
 11
487.0495171511
 21
-245.5424426428
 31
0.0
  0
LINE
  5
FA
330
1F
100
AcDbEntity
  8
0
  6
Continuous
 62
     7
370
    25
100
AcDbLine
 10
384.6387017288
 20
-119.069957527
 30
0.0
 11
384.6387017288
 21
-107.6630241549
 31
0.0
  0
LINE
  5
FB
330
1F
100
AcDbEntity
  8
0
  6
Continuous
 62
     7
370
    25
100
AcDbLine
 10
370.6387017288
 20
-107.6630241549
 30
0.0
 11
370.6387017288
 21
-119.2533880302
 31
0.0
  0
SPLINE
  5
FC
330
1F
100
AcDbEntity
  8
0
  6
Continuous
 62
     7
370
    25
100
AcDbSpline
210
0.0
220
0.0
230
1.0
 70
     8
 71
     3
 72
    11
 73
     7
 74
     0
 42
0.00000001
 43
0.00000001
 40
0.0
 40
0.0
 40
0.0
 40
0.0
 40
0.1580354366513737
 40
0.4744168579741213
 40
0.7907849476876865
 40
1.0
 40
1.0
 40
1.0
 40
1.0
 10
443.970881272242
 20
-48.7645863939298
 30
0.0
 10
441.1303136072135
 20
-50.27479901522464
 30
0.0
 10
432.6030287459165
 20
-54.80840452705741
 30
0.0
 10
418.493354098568
 20
-62.56703328711213
 30
0.0
 10
403.5266909511797
 20
-70.93139829894162
 30
0.0
 10
394.2581957160656
 20
-76.2840765543538
 30
0.0
 10
390.5687533416461
 20
-78.41477819158764
 30
0.0
  0
SPLINE
  5
FD
330
1F
100
AcDbEntity
  8
0
  6
Continuous
 62
     7
370
    25
100
AcDbSpline
210
0.0
220
0.0
230
1.0
 70
     8
 71
     3
 72
    11
 73
     7
 74
     0
 42
0.00000001
 43
0.00000001
 40
0.0
 40
0.0
 40
0.0
 40
0.0
 40
0.1071259763482975
 40
0.4234209757762558
 40
0.7396497653251892
 40
0.9999999999999999
 40
0.9999999999999999
 40
0.9999999999999999
 40
0.9999999999999999
 10
487.0380299477724
 20
-245.5227303117226
 30
0.0
 10
488.9304664977805
 20
-244.4375410045553
 30
0.0
 10
496.4104200805959
 20
-240.1482740031626
 30
0.0
 10
509.3695743426849
 20
-232.4713515241764
 30
0.0
 10
524.9500503159139
 20
-223.1011174849121
 30
0.0
 10
534.9223882557584
 20
-216.9099197560239
 30
0.0
 10
539.4253278595543
 20
-214.1143276274266
 30
0.0
  0
LINE
  5
FE
330
1F
100
AcDbEntity
  8
0
  6
Continuous
 62
     7
370
    25
100
AcDbLine
 10
489.2905053444
 20
-58.8398529987
 30
0.0
 11
489.2905053444
 21
-47.24882388
 31
0.0
  0
LINE
  5
FF
330
1F
100
AcDbEntity
  8
0
  6
Continuous
 62
     7
370
    25
100
AcDbLine
 10
475.2905053444
 20
-47.24882388
 30
0.0
 11
475.2905053444
 21
-58.6573301601
 31
0.0
  0
LWPOLYLINE
  5
100
330
1F
100
AcDbEntity
  8
0
  6
Continuous
 62
     7
370
    25
100
AcDbPolyline
 90
      130
 70
   128
 43
0.0
 10
301.6247227513
 20
-163.1933395907
 10
301.7048080563
 20
-159.4429294377
 10
301.9448740178
 20
-155.7938793682
 10
302.344351226
 20
-152.2548445258
 10
302.9022921649
 20
-148.8342191102
 10
303.6173734604
 20
-145.540116467
 10
304.4878990186
 20
-142.3803498437
 10
305.511804049
 20
-139.3624138577
 10
306.6866599621
 20
-136.4934667196
 10
308.0096801294
 20
-133.7803132551
 10
309.4777264933
 20
-131.2293887645
 10
311.0873170099
 20
-128.8467437589
 10
312.8346339085
 20
-126.6380296089
 10
314.7155327462
 20
-124.6084851405
 10
316.725552239
 20
-122.7629242089
 10
318.8599248427
 20
-121.1057242808
 10
321.1135880612
 20
-119.6408160513
 10
323.4811964544
 20
-118.371674121
 10
325.9571343167
 20
-117.3013087541
 10
328.5355289971
 20
-116.4322587392
 10
331.2102648283
 20
-115.7665853668
 10
333.9749976324
 20
-115.3058675407
 10
336.8231697686
 20
-115.0511980326
 10
339.7480256873
 20
-115.0031808905
 10
342.7426279534
 20
-115.1619300056
 10
345.7998737011
 20
-115.5270688428
 10
348.9125114814
 20
-116.0977313329
 10
352.0731584613
 20
-116.8725639276
 10
355.2743179353
 20
-117.8497288096
 10
358.5083971069
 20
-119.0269082517
 10
361.7677250975
 20
-120.4013101144
 10
365.0445711413
 20
-121.9696744683
 10
368.3311629215
 20
-123.7282813264
 10
371.6197050055
 20
-125.6729594676
 10
374.9023973348
 20
-127.7990963301
 10
378.1714537258
 20
-130.1016489523
 10
381.419120338
 20
-132.5751559336
 10
384.6376940649
 20
-135.2137503888
 10
387.8195408054
 20
-138.0111738633
 10
390.9571135704
 20
-140.9607911779
 10
394.042970384
 20
-144.0556061659
 10
397.0697919348
 20
-147.2882782683
 10
400.0303989364
 20
-150.651139944
 10
402.9177691562
 20
-154.1362148565
 10
405.725054071
 20
-157.7352367933
 10
408.4455951111
 20
-161.4396692719
 10
411.0729394537
 20
-165.2407257877
 10
413.6008553284
 20
-169.1293906547
 10
416.0233467979
 20
-173.0964403894
 10
418.3346679802
 20
-177.1324655882
 10
420.5293366767
 20
-181.2278932451
 10
422.6021473758
 20
-185.3730094582
 10
424.5481835995
 20
-189.5579824698
 10
426.3628295649
 20
-193.7728859864
 10
428.0417811323
 20
-198.0077227224
 10
429.5810560139
 20
-202.252448113
 10
430.97700322
 20
-206.4969941385
 10
432.2263117178
 20
-210.7312932046
 10
433.3260182857
 20
-214.9453020219
 10
434.2735145412
 20
-219.129025427
 10
435.0665531279
 20
-223.2725400901
 10
435.7032530459
 20
-227.3660180523
 10
436.1821041132
 20
-231.399750036
 10
436.5019705481
 20
-235.3641684748
 10
436.6620936627
 20
-239.249870206
 10
436.6620936627
 20
-243.0476387745
 10
436.5019705481
 20
-246.7484662928
 10
436.1821041132
 20
-250.3435748068
 10
435.7032530459
 20
-253.8244371164
 10
435.0665531279
 20
-257.1827970008
 10
434.2735145412
 20
-260.4106888013
 10
433.3260182857
 20
-263.5004563152
 10
432.2263117178
 20
-266.4447709553
 10
430.97700322
 20
-269.2366491327
 10
429.5810560139
 20
-271.8694688206
 10
428.0417811323
 20
-274.3369852618
 10
426.3628295649
 20
-276.6333457798
 10
424.5481835995
 20
-278.7531036611
 10
422.6021473758
 20
-280.6912310743
 10
420.5293366767
 20
-282.4431309953
 10
418.3346679802
 20
-284.004648111
 10
416.0233467979
 20
-285.3720786753
 10
413.6008553284
 20
-286.542179294
 10
411.0729394537
 20
-287.5121746178
 10
408.4455951111
 20
-288.2797639248
 10
405.725054071
 20
-288.8431265781
 10
402.9177691562
 20
-289.2009263436
 10
400.0303989364
 20
-289.3523145599
 10
397.0697919348
 20
-289.2969321508
 10
394.042970384
 20
-289.0349104773
 10
390.9571135704
 20
-288.5668710259
 10
387.8195408054
 20
-287.8939239344
 10
384.6376940649
 20
-287.0176653589
 10
381.419120338
 20
-285.9401736881
 10
378.1714537258
 20
-284.6640046131
 10
374.9023973348
 20
-283.1921850659
 10
371.6197050055
 20
-281.5282060399
 10
368.3311629215
 20
-279.6760143096
 10
365.0445711413
 20
-277.640003069
 10
361.7677250975
 20
-275.4250015119
 10
358.5083971069
 20
-273.0362633773
 10
355.2743179353
 20
-270.4794544881
 10
352.0731584613
 20
-267.7606393126
 10
348.9125114814
 20
-264.8862665798
 10
345.7998737011
 20
-261.8631539845
 10
342.7426279534
 20
-258.6984720156
 10
339.7480256873
 20
-255.3997269492
 10
336.8231697686
 20
-251.9747430441
 10
333.9749976324
 20
-248.4316439837
 10
331.2102648283
 20
-244.7788336076
 10
328.5355289971
 20
-241.0249759784
 10
325.9571343167
 20
-237.1789748317
 10
323.4811964544
 20
-233.2499524572
 10
321.1135880612
 20
-229.247228062
 10
318.8599248427
 20
-225.1802956661
 10
316.725552239
 20
-221.0588015838
 10
314.7155327462
 20
-216.8925215438
 10
312.8346339085
 20
-212.6913375019
 10
311.0873170099
 20
-208.4652142026
 10
309.4777264933
 20
-204.2241755435
 10
308.0096801294
 20
-199.9782807996
 10
306.6866599621
 20
-195.7376007643
 10
305.511804049
 20
-191.512193862
 10
304.4878990186
 20
-187.3120822911
 10
303.6173734604
 20
-183.1472282522
 10
302.9022921649
 20
-179.027510319
 10
302.344351226
 20
-174.9627000071
 10
301.9448740178
 20
-170.9624385977
 10
301.7048080563
 20
-167.0362142688
 10
301.6247227513
 20
-163.1933395907
  0
SPLINE
  5
101
330
1F
100
AcDbEntity
  8
0
  6
Continuous
 62
     7
370
    25
100
AcDbSpline
210
0.0
220
0.0
230
1.0
 70
     8
 71
     3
 72
    12
 73
     8
 74
     0
 42
0.00000001
 43
0.00000001
 40
0.0
 40
0.0
 40
0.0
 40
0.0
 40
0.2142782424425286
 40
0.428561035039404
 40
0.6426957699370821
 40
0.8567100172222977
 40
1.0
 40
1.0
 40
1.0
 40
1.0
 10
377.6631417384838
 20
-123.2955547089571
 30
0.0
 10
376.8762039374729
 20
-123.2391311973156
 30
0.0
 10
375.3023116249889
 20
-123.1262829758912
 30
0.0
 10
373.1967555384551
 20
-122.4073604066061
 30
0.0
 10
371.6226867464493
 20
-121.3902296777188
 30
0.0
 10
370.7250419679691
 20
-120.2853269920501
 30
0.0
 10
370.7261377982596
 20
-119.5467134742137
 30
0.0
 10
370.7265772599011
 20
-119.2505067424
 30
0.0
  0
SPLINE
  5
102
330
1F
100
AcDbEntity
  8
0
  6
Continuous
 62
     7
370
    25
100
AcDbSpline
210
0.0
220
0.0
230
1.0
 70
     8
 71
     3
 72
    13
 73
     9
 74
     0
 42
0.00000001
 43
0.00000001
 40
0.0
 40
0.0
 40
0.0
 40
0.0
 40
0.0014669980832829
 40
0.216776768031321
 40
0.4323875818901498
 40
0.6475132825525306
 40
0.8621308872183762
 40
1.0
 40
1.0
 40
1.0
 40
1.0
 10
384.6360406674361
 20
-119.070214484988
 30
0.0
 10
384.636926949411
 20
-119.0734546555572
 30
0.0
 10
384.7678919072093
 20
-119.552251261953
 30
0.0
 10
384.3049844009176
 20
-120.5506524898033
 30
0.0
 10
383.2142117203546
 20
-121.8348479606816
 30
0.0
 10
381.4004759593149
 20
-122.78365046884
 30
0.0
 10
379.451953529967
 20
-123.2520966528738
 30
0.0
 10
378.1660864970071
 20
-123.2833359827463
 30
0.0
 10
377.6631417384838
 20
-123.2955547089571
 30
0.0
  0
LWPOLYLINE
  5
103
330
1F
100
AcDbEntity
  8
0
  6
Continuous
 62
     7
370
    25
100
AcDbPolyline
 90
      119
 70
   128
 43
0.0
 10
312.5848778596
 20
-169.5205024574
 10
312.6650526995
 20
-166.0901401788
 10
312.9053499547
 20
-162.7620695344
 10
313.3050884766
 20
-159.5457243022
 10
313.863135163
 20
-156.4502215621
 10
314.5779081698
 20
-153.484335853
 10
315.4473813953
 20
-150.6564743
 10
316.4690902233
 20
-147.9746527841
 10
317.640138509
 20
-145.4464732197
 10
318.9572067888
 20
-143.0791020065
 10
320.4165616896
 20
-140.8792497153
 10
322.0140665113
 20
-138.8531520665
 10
323.7451929531
 20
-137.006552254
 10
325.6050339489
 20
-135.3446846655
 10
327.5883175773
 20
-133.8722600454
 10
329.6894220054
 20
-132.5934521412
 10
331.9023914245
 20
-131.5118858728
 10
334.2209529323
 20
-130.6306270574
 10
336.6385343143
 20
-129.9521737187
 10
339.1482826734
 20
-129.4784490065
 10
341.7430838552
 20
-129.210795745
 10
344.4155826138
 20
-129.1499726263
 10
347.1582034613
 20
-129.2961520603
 10
349.9631721406
 20
-129.6489196854
 10
352.8225376635
 20
-130.2072755435
 10
355.7281948477
 20
-130.9696369143
 10
358.6719072922
 20
-131.9338428016
 10
361.6453307243
 20
-133.097160059
 10
364.6400366521
 20
-134.4562911374
 10
367.6475362564
 20
-136.0073834322
 10
370.6593044528
 20
-137.7460402036
 10
373.6668040571
 20
-139.6673330402
 10
376.6615099849
 20
-141.7658158286
 10
379.6349334169
 20
-144.0355401915
 10
382.5786458614
 20
-146.4700723484
 10
385.4843030456
 20
-149.0625113536
 10
388.3436685685
 20
-151.805508657
 10
391.1486372479
 20
-154.6912889346
 10
393.8912580953
 20
-157.7116721289
 10
396.5637568539
 20
-160.8580966354
 10
399.1585580357
 20
-164.1216435721
 10
401.6683063948
 20
-167.4930620605
 10
404.0858877768
 20
-170.9627954488
 10
406.4044492846
 20
-174.5210084005
 10
408.6174187037
 20
-178.1576147747
 10
410.7185231318
 20
-181.8623062152
 10
412.7018067603
 20
-185.6245813719
 10
414.561647756
 20
-189.4337756669
 10
416.2927741978
 20
-193.2790915252
 10
417.8902790196
 20
-197.1496289812
 10
419.3496339204
 20
-201.034416576
 10
420.6667022002
 20
-204.9224424571
 10
421.8377504858
 20
-208.8026855926
 10
422.8594593138
 20
-212.6641470119
 10
423.7289325393
 20
-216.495880983
 10
424.4437055462
 20
-220.2870260397
 10
425.0017522325
 20
-224.0268357694
 10
425.4014907544
 20
-227.7047092752
 10
425.6417880097
 20
-231.3102212249
 10
425.7219628495
 20
-234.8331514032
 10
425.6417880097
 20
-238.2635136818
 10
425.4014907544
 20
-241.5915843261
 10
425.0017522325
 20
-244.8079295584
 10
424.4437055462
 20
-247.9034322985
 10
423.7289325393
 20
-250.8693180076
 10
422.8594593138
 20
-253.6971795605
 10
421.8377504858
 20
-256.3790010764
 10
420.6667022002
 20
-258.9071806408
 10
419.3496339204
 20
-261.2745518541
 10
417.8902790196
 20
-263.4744041453
 10
416.2927741978
 20
-265.5005017941
 10
414.561647756
 20
-267.3471016066
 10
412.7018067603
 20
-269.008969195
 10
410.7185231318
 20
-270.4813938151
 10
408.6174187037
 20
-271.7602017193
 10
406.4044492846
 20
-272.8417679877
 10
404.0858877768
 20
-273.7230268032
 10
401.6683063948
 20
-274.4014801419
 10
399.1585580357
 20
-274.8752048541
 10
396.5637568539
 20
-275.1428581156
 10
393.8912580953
 20
-275.2036812343
 10
391.1486372479
 20
-275.0575018003
 10
388.3436685685
 20
-274.7047341752
 10
385.4843030456
 20
-274.146378317
 10
382.5786458614
 20
-273.3840169463
 10
379.6349334169
 20
-272.419811059
 10
376.6615099849
 20
-271.2564938016
 10
373.6668040571
 20
-269.8973627231
 10
370.6593044528
 20
-268.3462704284
 10
367.6475362564
 20
-266.607613657
 10
364.6400366521
 20
-264.6863208204
 10
361.6453307243
 20
-262.5878380319
 10
358.6719072922
 20
-260.3181136691
 10
355.7281948477
 20
-257.8835815121
 10
352.8225376635
 20
-255.291142507
 10
349.9631721406
 20
-252.5481452036
 10
347.1582034613
 20
-249.6623649259
 10
344.4155826138
 20
-246.6419817317
 10
341.7430838552
 20
-243.4955572252
 10
339.1482826734
 20
-240.2320102885
 10
336.6385343143
 20
-236.8605918001
 10
334.2209529323
 20
-233.3908584118
 10
331.9023914245
 20
-229.83264546
 10
329.6894220054
 20
-226.1960390859
 10
327.5883175773
 20
-222.4913476453
 10
325.6050339489
 20
-218.7290724887
 10
323.7451929531
 20
-214.9198781937
 10
322.0140665113
 20
-211.0745623354
 10
320.4165616896
 20
-207.2040248794
 10
318.9572067888
 20
-203.3192372846
 10
317.640138509
 20
-199.4312114035
 10
316.4690902233
 20
-195.5509682679
 10
315.4473813953
 20
-191.6895068486
 10
314.5779081698
 20
-187.8577728775
 10
313.863135163
 20
-184.0666278208
 10
313.3050884766
 20
-180.3268180911
 10
312.9053499547
 20
-176.6489445854
 10
312.6650526995
 20
-173.0434326357
 10
312.5848778596
 20
-169.5205024574
  0
LWPOLYLINE
  5
104
330
1F
100
AcDbEntity
  8
0
  6
Continuous
 62
     7
370
    25
100
AcDbPolyline
 90
       35
 70
   128
 43
0.0
 10
382.5884491971
 20
-104.8055957635
 10
383.413684051
 20
-105.379300001
 10
384.0422588082
 20
-106.0307737255
 10
384.4527681093
 20
-106.7378317808
 10
384.6312325524
 20
-107.4763961526
 10
384.5715747449
 20
-108.2213159173
 10
384.2758262619
 20
-108.9472237256
 10
383.7540584633
 20
-109.6293996577
 10
383.0240395257
 20
-110.2446130305
 10
382.1106293684
 20
-110.7719134905
 10
381.0449330788
 20
-111.1933444527
 10
379.8632416659
 20
-111.4945545914
 10
378.6057962135
 20
-111.6652865565
 10
377.3154175183
 20
-111.6997262757
 10
376.0360478792
 20
-111.5967009457
 10
374.8112546947
 20
-111.3597189705
 10
373.6827468278
 20
-110.996850487
 10
372.6889542605
 20
-110.5204525463
 10
371.8637194066
 20
-109.9467483088
 10
371.2351446494
 20
-109.2952745842
 10
370.8246353483
 20
-108.588216529
 10
370.6461709052
 20
-107.8496521571
 10
370.7058287127
 20
-107.1047323925
 10
371.0015771957
 20
-106.3788245842
 10
371.5233449943
 20
-105.696648652
 10
372.2533639319
 20
-105.0814352792
 10
373.1667740892
 20
-104.5541348193
 10
374.2324703788
 20
-104.132703857
 10
375.4141617917
 20
-103.8314937183
 10
376.6716072441
 20
-103.6607617532
 10
377.9619859393
 20
-103.626322034
 10
379.2413555785
 20
-103.7293473641
 10
380.4661487629
 20
-103.9663293393
 10
381.5946566298
 20
-104.3291978228
 10
382.5884491971
 20
-104.8055957635
  0
LWPOLYLINE
  5
105
330
1F
100
AcDbEntity
  8
0
  6
Continuous
 62
     7
370
    25
100
AcDbPolyline
 90
       30
 70
   128
 43
0.0
 10
381.1742356347
 20
-105.6220038753
 10
381.8516120969
 20
-106.1084808232
 10
382.3319975525
 20
-106.6676464896
 10
382.5929297117
 20
-107.2733549092
 10
382.6222076766
 20
-107.8972838298
 10
382.4184624422
 20
-108.5102590282
 10
381.9912209091
 20
-109.0836184657
 10
381.3604604166
 20
-109.590552492
 10
380.5556746243
 20
-110.0073574356
 10
379.6144944215
 20
-110.3145439606
 10
378.5809283482
 20
-110.4977483663
 10
377.5033048054
 20
-110.5484042185
 10
376.4320122723
 20
-110.4641429058
 10
375.417143197
 20
-110.2489043936
 10
374.5061517296
 20
-109.9127529953
 10
373.7416348186
 20
-109.4714067769
 10
373.159340425
 20
-108.945502597
 10
372.7864959875
 20
-108.3596311504
 10
372.6405352977
 20
-107.741187135
 10
372.7282833151
 20
-107.1190883055
 10
373.04563704
 20
-106.5224233118
 10
373.5777573649
 20
-105.9790915458
 10
374.2997629349
 20
-105.5144985971
 10
375.1778935719
 20
-105.1503683155
 10
376.1710888633
 20
-104.9037270284
 10
377.2329081012
 20
-104.7861074081
 10
378.3137017981
 20
-104.8030092175
 10
379.3629332419
 20
-104.9536421467
 10
380.3315415366
 20
-105.2309627673
 10
381.1742356347
 20
-105.6220038753
  0
LWPOLYLINE
  5
106
330
1F
100
AcDbEntity
  8
0
  6
Continuous
 62
     7
370
    25
100
AcDbPolyline
 90
       13
 70
   128
 43
0.0
 10
443.9570989641
 20
-48.7430714888
 10
445.1035628185
 20
-48.1605765042
 10
447.5795006808
 20
-47.0902111374
 10
450.1578953612
 20
-46.2211611224
 10
452.8326311924
 20
-45.5554877501
 10
455.5973639965
 20
-45.0947699239
 10
458.4455361327
 20
-44.8401004158
 10
461.3703920514
 20
-44.7920832737
 10
464.3649943174
 20
-44.9508323889
 10
467.4222400652
 20
-45.315971226
 10
470.5348778455
 20
-45.8866337161
 10
473.6955248253
 20
-46.6614663108
 10
475.2937617437
 20
-47.125577366
  0
LWPOLYLINE
  5
107
330
1F
100
AcDbEntity
  8
0
  6
Continuous
 62
     7
370
    25
100
AcDbPolyline
 90
       51
 70
   128
 43
0.0
 10
489.2905053444
 20
-53.1475115587
 10
489.9535292856
 20
-53.5171837097
 10
493.2420713696
 20
-55.4618618509
 10
496.5247636988
 20
-57.5879987134
 10
499.7938200899
 20
-59.8905513355
 10
503.0414867021
 20
-62.3640583168
 10
506.260060429
 20
-65.002652772
 10
509.4419071695
 20
-67.8000762466
 10
512.5794799345
 20
-70.7496935611
 10
515.6653367481
 20
-73.8445085492
 10
518.6921582989
 20
-77.0771806516
 10
521.6527653005
 20
-80.4400423272
 10
524.5401355203
 20
-83.9251172398
 10
527.3474204351
 20
-87.5241391765
 10
530.0679614752
 20
-91.2285716551
 10
532.6953058178
 20
-95.029628171
 10
535.2232216924
 20
-98.918293038
 10
537.645713162
 20
-102.8853427727
 10
539.9570343442
 20
-106.9213679714
 10
542.1517030408
 20
-111.0167956283
 10
544.2245137399
 20
-115.1619118414
 10
546.1705499636
 20
-119.3468848531
 10
547.985195929
 20
-123.5617883697
 10
549.6641474963
 20
-127.7966251057
 10
551.203422378
 20
-132.0413504962
 10
552.599369584
 20
-136.2858965217
 10
553.8486780819
 20
-140.5201955879
 10
554.9483846498
 20
-144.7342044052
 10
555.8958809053
 20
-148.9179278102
 10
556.688919492
 20
-153.0614424733
 10
557.32561941
 20
-157.1549204355
 10
557.8044704773
 20
-161.1886524193
 10
558.1243369122
 20
-165.1530708581
 10
558.2844600268
 20
-169.0387725893
 10
558.2844600268
 20
-172.8365411578
 10
558.1243369122
 20
-176.537368676
 10
557.8044704773
 20
-180.13247719
 10
557.32561941
 20
-183.6133394996
 10
556.688919492
 20
-186.971699384
 10
555.8958809053
 20
-190.1995911845
 10
554.9483846498
 20
-193.2893586984
 10
553.8486780819
 20
-196.2336733386
 10
552.599369584
 20
-199.0255515159
 10
551.203422378
 20
-201.6583712039
 10
549.6641474963
 20
-204.125887645
 10
547.985195929
 20
-206.422248163
 10
546.1705499636
 20
-208.5420060444
 10
544.2245137399
 20
-210.4801334576
 10
542.1517030408
 20
-212.2320333785
 10
539.9570343442
 20
-213.7935504942
 10
539.4320463196
 20
-214.1275623939
  0
SPLINE
  5
108
330
1F
100
AcDbEntity
  8
0
  6
Continuous
 62
     7
370
    25
100
AcDbSpline
210
0.0
220
0.0
230
1.0
 70
     8
 71
     3
 72
    12
 73
     8
 74
     0
 42
0.00000001
 43
0.00000001
 40
0.0
 40
0.0
 40
0.0
 40
0.0
 40
0.213257117431409
 40
0.4265377278467448
 40
0.6392228970539584
 40
0.8515415442255778
 40
1.0
 40
1.0
 40
1.0
 40
1.0
 10
482.3633348499043
 20
-62.69953317015916
 30
0.0
 10
481.5765914682435
 20
-62.62755170371753
 30
0.0
 10
480.0030180351315
 20
-62.48358084116018
 30
0.0
 10
477.890541208237
 20
-61.74912947467322
 30
0.0
 10
476.3043499198665
 20
-60.74419384643209
 30
0.0
 10
475.3876005185004
 20
-59.66164673525493
 30
0.0
 10
475.3778317069671
 20
-58.94786325720271
 30
0.0
 10
475.3738118768195
 20
-58.65414397168368
 30
0.0
  0
SPLINE
  5
109
330
1F
100
AcDbEntity
  8
0
  6
Continuous
 62
     7
370
    25
100
AcDbSpline
210
0.0
220
0.0
230
1.0
 70
     8
 71
     3
 72
    12
 73
     8
 74
     0
 42
0.00000001
 43
0.00000001
 40
0.0
 40
0.0
 40
0.0
 40
0.0
 40
0.2132210179153496
 40
0.4291418596379828
 40
0.6447046643792952
 40
0.8603579858498135
 40
1.0
 40
1.0
 40
1.0
 40
1.0
 10
489.2853469097333
 20
-58.83935952853486
 30
0.0
 10
489.2121438240295
 20
-59.29911841975484
 30
0.0
 10
489.064810748532
 20
-60.22445771084465
 30
0.0
 10
487.8719442256189
 20
-61.42748827271055
 30
0.0
 10
486.1068013276205
 20
-62.29304349415571
 30
0.0
 10
484.1568943432729
 20
-62.69875040850103
 30
0.0
 10
482.8693711396855
 20
-62.6993123211677
 30
0.0
 10
482.3633348499043
 20
-62.69953317015916
 30
0.0
  0
LWPOLYLINE
  5
10A
330
1F
100
AcDbEntity
  8
0
  6
Continuous
 62
     7
370
    25
100
AcDbPolyline
 90
       35
 70
   128
 43
0.0
 10
477.3407578761
 20
-50.1062522714
 10
476.5155230222
 20
-49.5325480339
 10
475.886948265
 20
-48.8810743094
 10
475.4764389639
 20
-48.1740162541
 10
475.2979745208
 20
-47.4354518823
 10
475.3576323283
 20
-46.6905321176
 10
475.6533808113
 20
-45.9646243093
 10
476.1751486099
 20
-45.2824483771
 10
476.9051675475
 20
-44.6672350043
 10
477.8185777049
 20
-44.1399345444
 10
478.8842739944
 20
-43.7185035821
 10
480.0659654073
 20
-43.4172934434
 10
481.3234108598
 20
-43.2465614783
 10
482.6137895549
 20
-43.2121217592
 10
483.8931591941
 20
-43.3151470892
 10
485.1179523785
 20
-43.5521290644
 10
486.2464602454
 20
-43.9149975479
 10
487.2402528127
 20
-44.3913954886
 10
488.0654876666
 20
-44.9650997261
 10
488.6940624238
 20
-45.6165734506
 10
489.1045717249
 20
-46.3236315059
 10
489.283036168
 20
-47.0621958778
 10
489.2233783605
 20
-47.8071156424
 10
488.9276298776
 20
-48.5330234507
 10
488.4058620789
 20
-49.2151993829
 10
487.6758431413
 20
-49.8304127557
 10
486.762432984
 20
-50.3577132156
 10
485.6967366944
 20
-50.7791441779
 10
484.5150452815
 20
-51.0803543166
 10
483.2575998291
 20
-51.2510862817
 10
481.9672211339
 20
-51.2855260009
 10
480.6878514948
 20
-51.1825006708
 10
479.4630583103
 20
-50.9455186956
 10
478.3345504435
 20
-50.5826502121
 10
477.3407578761
 20
-50.1062522714
  0
LWPOLYLINE
  5
10B
330
1F
100
AcDbEntity
  8
0
  6
Continuous
 62
     7
370
    25
100
AcDbPolyline
 90
       30
 70
   128
 43
0.0
 10
478.7549714385
 20
-49.2898441596
 10
478.0775949763
 20
-48.8033672117
 10
477.5972095207
 20
-48.2442015453
 10
477.3362773615
 20
-47.6384931257
 10
477.3069993966
 20
-47.0145642051
 10
477.5107446311
 20
-46.4015890066
 10
477.9379861641
 20
-45.8282295692
 10
478.5687466566
 20
-45.3212955429
 10
479.3735324489
 20
-44.9044905993
 10
480.3147126518
 20
-44.5973040743
 10
481.348278725
 20
-44.4140996686
 10
482.4259022678
 20
-44.3634438164
 10
483.4971948009
 20
-44.4477051291
 10
484.5120638762
 20
-44.6629436413
 10
485.4230553436
 20
-44.9990950396
 10
486.1875722546
 20
-45.440441258
 10
486.7698666482
 20
-45.9663454379
 10
487.1427110857
 20
-46.5522168845
 10
487.2886717755
 20
-47.1706608999
 10
487.2009237581
 20
-47.7927597294
 10
486.8835700332
 20
-48.3894247231
 10
486.3514497083
 20
-48.9327564891
 10
485.6294441384
 20
-49.3973494378
 10
484.7513135014
 20
-49.7614797194
 10
483.7581182099
 20
-50.0081210065
 10
482.6962989721
 20
-50.1257406268
 10
481.6155052751
 20
-50.1088388174
 10
480.5662738313
 20
-49.9582058882
 10
479.5976655366
 20
-49.6808852676
 10
478.7549714385
 20
-49.2898441596
  0
LWPOLYLINE
  5
10C
330
1F
100
AcDbEntity
  8
0
  6
Continuous
 62
     1
370
    25
100
AcDbPolyline
 90
       66
 70
   128
 43
0.0
 10
372.8797964401
 20
-88.6000521098
 10
374.9753016894
 20
-87.4911351444
 10
377.4771656026
 20
-86.4095617632
 10
380.0825591802
 20
-85.5314117481
 10
382.7853027165
 20
-84.858767974
 10
385.5789856022
 20
-84.3932258774
 10
388.4569815304
 20
-84.1358896729
 10
391.4124642127
 20
-84.0873697334
 10
394.4384235706
 20
-84.247781143
 10
397.5276823628
 20
-84.6167434235
 10
400.6729132088
 20
-85.193381437
 10
403.8666559686
 20
-85.9763274621
 10
407.1013354371
 20
-86.9637244371
 10
410.3692793121
 20
-88.1532303655
 10
413.6627363916
 20
-89.5420238707
 10
416.9738949594
 20
-91.126810888
 10
420.2949013132
 20
-92.9038324777
 10
423.6178783929
 20
-94.8688737407
 10
426.9349444638
 20
-97.0172738165
 10
430.2382318118
 20
-99.3439369372
 10
433.5199054042
 20
-101.8433445152
 10
436.7721814739
 20
-104.5095682317
 10
439.9873459813
 20
-107.3362840987
 10
443.1577729114
 20
-110.3167874584
 10
446.2759423618
 20
-113.4440088861
 10
449.334458379
 20
-116.7105309582
 10
452.3260665011
 20
-120.1086058451
 10
455.243670964
 20
-123.6301736887
 10
458.0803515324
 20
-127.266881719
 10
460.8293799132
 20
-131.0101040665
 10
463.4842357149
 20
-134.8509622212
 10
466.0386219128
 20
-138.7803460921
 10
468.4864797852
 20
-142.7889356146
 10
470.8220032835
 20
-146.8672228573
 10
473.0396528041
 20
-151.0055345734
 10
475.1341683273
 20
-155.1940551448
 10
477.1005818936
 20
-159.4228498634
 10
478.9342293875
 20
-163.6818884953
 10
480.6307615995
 20
-167.9610690715
 10
482.1861545428
 20
-172.2502418484
 10
483.596718997
 20
-176.539233382
 10
484.8591092592
 20
-180.8178706582
 10
485.9703310792
 20
-185.0760052223
 10
486.9277487615
 20
-189.3035372494
 10
487.7290914171
 20
-193.4904395006
 10
488.3724583499
 20
-197.6267811064
 10
488.8563235645
 20
-201.7027511214
 10
489.1795393862
 20
-205.7086817951
 10
489.3413391826
 20
-209.6350715026
 10
489.3413391826
 20
-213.4726072812
 10
489.1795393862
 20
-217.2121869201
 10
488.8563235645
 20
-220.8449405494
 10
488.3724583499
 20
-224.362251679
 10
487.7290914171
 20
-227.7557776355
 10
486.9277487615
 20
-231.0174693501
 10
485.9703310792
 20
-234.1395904506
 10
484.8591092592
 20
-237.1147356105
 10
483.596718997
 20
-239.9358481143
 10
482.1861545428
 20
-242.5962365948
 10
480.6307615995
 20
-245.0895909045
 10
478.9342293875
 20
-247.4099970823
 10
477.1005818936
 20
-249.5519513813
 10
475.1341683273
 20
-251.5103733224
 10
473.0396528041
 20
-253.2806177451
 10
470.8220032835
 20
-254.8584858254
 10
469.371804777
 20
-255.7475687741
  0
LWPOLYLINE
  5
10D
330
1F
100
AcDbEntity
  8
0
  6
Continuous
 62
     1
370
    25
100
AcDbPolyline
 90
       66
 70
   128
 43
0.0
 10
390.5573594518
 20
-78.3950122033
 10
392.6529712191
 20
-77.2860337466
 10
395.1548351323
 20
-76.2044603654
 10
397.7602287099
 20
-75.3263103503
 10
400.4629722461
 20
-74.6536665762
 10
403.2566551319
 20
-74.1881244796
 10
406.1346510601
 20
-73.9307882751
 10
409.0901337423
 20
-73.8822683357
 10
412.1160931002
 20
-74.0426797452
 10
415.2053518925
 20
-74.4116420257
 10
418.3505827385
 20
-74.9882800393
 10
421.5443254983
 20
-75.7712260643
 10
424.7790049668
 20
-76.7586230393
 10
428.0469488417
 20
-77.9481289677
 10
431.3404059213
 20
-79.336922473
 10
434.6515644891
 20
-80.9217094903
 10
437.9725708429
 20
-82.6987310799
 10
441.2955479225
 20
-84.6637723429
 10
444.6126139935
 20
-86.8121724187
 10
447.9159013415
 20
-89.1388355395
 10
451.1975749339
 20
-91.6382431174
 10
454.4498510036
 20
-94.3044668339
 10
457.6650155109
 20
-97.1311827009
 10
460.835442441
 20
-100.1116860606
 10
463.9536118914
 20
-103.2389074884
 10
467.0121279087
 20
-106.5054295604
 10
470.0037360308
 20
-109.9035044473
 10
472.9213404937
 20
-113.4250722909
 10
475.758021062
 20
-117.0617803212
 10
478.5070494428
 20
-120.8050026687
 10
481.1619052445
 20
-124.6458608235
 10
483.7162914425
 20
-128.5752446943
 10
486.1641493148
 20
-132.5838342168
 10
488.4996728132
 20
-136.6621214595
 10
490.7173223337
 20
-140.8004331756
 10
492.8118378569
 20
-144.988953747
 10
494.7782514233
 20
-149.2177484656
 10
496.6118989171
 20
-153.4767870975
 10
498.3084311292
 20
-157.7559676737
 10
499.8638240724
 20
-162.0451404506
 10
501.2743885267
 20
-166.3341319842
 10
502.5367787889
 20
-170.6127692605
 10
503.6480006088
 20
-174.8709038245
 10
504.6054182911
 20
-179.0984358516
 10
505.4067609468
 20
-183.2853381028
 10
506.0501278796
 20
-187.4216797086
 10
506.5339930942
 20
-191.4976497236
 10
506.8572089159
 20
-195.5035803973
 10
507.0190087123
 20
-199.4299701048
 10
507.0190087123
 20
-203.2675058834
 10
506.8572089159
 20
-207.0070855223
 10
506.5339930942
 20
-210.6398391516
 10
506.0501278796
 20
-214.1571502812
 10
505.4067609468
 20
-217.5506762377
 10
504.6054182911
 20
-220.8123679523
 10
503.6480006088
 20
-223.9344890528
 10
502.5367787889
 20
-226.9096342127
 10
501.2743885267
 20
-229.7307467165
 10
499.8638240724
 20
-232.391135197
 10
498.3084311292
 20
-234.8844895067
 10
496.6118989171
 20
-237.2048956845
 10
494.7782514233
 20
-239.3468499835
 10
492.8118378569
 20
-241.3052719246
 10
490.7173223337
 20
-243.0755163473
 10
488.4996728132
 20
-244.6533844276
 10
487.0495171511
 20
-245.5424426428
  0
ENDSEC
  0
SECTION
  2
OBJECTS
  0
DICTIONARY
  5
C
330
0
100
AcDbDictionary
281
     1
  3
ACAD_GROUP
350
D
  3
ACAD_LAYOUT
350
1A
  3
ACAD_MLINESTYLE
350
17
  3
ACAD_PLOTSETTINGS
350
19
  3
ACAD_PLOTSTYLENAME
350
E
  3
ACAD_SCALELIST
350
47
  3
DWGPROPS
350
10E
  0
DICTIONARY
  5
D
102
{ACAD_REACTORS
330
C
102
}
330
C
100
AcDbDictionary
281
     1
  0
DICTIONARY
  5
1A
102
{ACAD_REACTORS
330
C
102
}
330
C
100
AcDbDictionary
281
     1
  3
Layout1
350
1E
  3
Layout2
350
26
  3
Model
350
22
  0
DICTIONARY
  5
17
102
{ACAD_REACTORS
330
C
102
}
330
C
100
AcDbDictionary
281
     1
  3
Standard
350
18
  0
DICTIONARY
  5
19
102
{ACAD_REACTORS
330
C
102
}
330
C
100
AcDbDictionary
281
     1
  0
ACDBDICTIONARYWDFLT
  5
E
102
{ACAD_REACTORS
330
C
102
}
330
C
100
AcDbDictionary
281
     1
  3
Normal
350
F
100
AcDbDictionaryWithDefault
340
F
  0
DICTIONARY
  5
47
102
{ACAD_REACTORS
330
C
102
}
330
C
100
AcDbDictionary
281
     1
  3
A0
350
48
  3
A1
350
49
  3
A2
350
4A
  3
A3
350
4B
  3
A4
350
4C
  3
A5
350
4D
  3
A6
350
4E
  3
A7
350
4F
  3
A8
350
50
  3
A9
350
51
  3
B0
350
52
  3
B1
350
53
  3
B2
350
54
  3
B3
350
55
  3
B4
350
56
  3
B5
350
57
  3
B6
350
58
  3
B7
350
59
  3
B8
350
5A
  3
B9
350
5B
  3
C0
350
5C
  3
C1
350
5D
  3
C2
350
5E
  3
C3
350
5F
  3
C4
350
60
  3
C5
350
61
  3
C6
350
62
  3
C7
350
63
  3
C8
350
64
  3
C9
350
65
  3
D0
350
66
  3
D1
350
67
  3
D2
350
68
  0
XRECORD
  5
10E
102
{ACAD_REACTORS
330
C
102
}
330
C
100
AcDbXrecord
280
     1
  1
DWGPROPS COOKIE
  2

  3

  4

  6

  7

  8
b.kav
  9

300
=
301
=
302
=
303
=
304
=
305
=
306
=
307
=
308
=
309
=
 40
0.0
 41
2459935.585274861
 42
2459935.585275047
  1

 90
        0
  0
LAYOUT
  5
1E
102
{ACAD_REACTORS
330
1A
102
}
330
1A
100
AcDbPlotSettings
  1

  2
none_device
  4

  6

 40
0.0
 41
0.0
 42
0.0
 43
0.0
 44
0.0
 45
0.0
 46
0.0
 47
0.0
 48
0.0
 49
0.0
140
0.0
141
0.0
142
1.0
143
1.0
 70
   688
 72
     1
 73
     0
 74
     5
  7

 75
    16
147
1.0
148
0.0
149
0.0
100
AcDbLayout
  1
Layout1
 70
     1
 71
     1
 10
0.0
 20
0.0
 11
420.0
 21
297.0
 12
0.0
 22
0.0
 32
0.0
 14
1.0000000000E+20
 24
1.0000000000E+20
 34
1.0000000000E+20
 15
-1.0000000000E+20
 25
-1.0000000000E+20
 35
-1.0000000000E+20
146
0.0
 13
0.0
 23
0.0
 33
0.0
 16
1.0
 26
0.0
 36
0.0
 17
0.0
 27
1.0
 37
0.0
 76
     0
330
1B
  0
LAYOUT
  5
26
102
{ACAD_REACTORS
330
1A
102
}
330
1A
100
AcDbPlotSettings
  1

  2
none_device
  4

  6

 40
0.0
 41
0.0
 42
0.0
 43
0.0
 44
0.0
 45
0.0
 46
0.0
 47
0.0
 48
0.0
 49
0.0
140
0.0
141
0.0
142
1.0
143
1.0
 70
   688
 72
     1
 73
     0
 74
     5
  7

 75
    16
147
1.0
148
0.0
149
0.0
100
AcDbLayout
  1
Layout2
 70
     1
 71
     2
 10
0.0
 20
0.0
 11
0.0
 21
0.0
 12
0.0
 22
0.0
 32
0.0
 14
0.0
 24
0.0
 34
0.0
 15
0.0
 25
0.0
 35
0.0
146
0.0
 13
0.0
 23
0.0
 33
0.0
 16
1.0
 26
0.0
 36
0.0
 17
0.0
 27
1.0
 37
0.0
 76
     0
330
23
  0
LAYOUT
  5
22
102
{ACAD_REACTORS
330
1A
102
}
330
1A
100
AcDbPlotSettings
  1

  2
none_device
  4
Letter_(8.50_x_11.00_Inches)
  6

 40
6.35
 41
6.35
 42
6.35000508
 43
6.35000508
 44
215.9
 45
279.4
 46
0.0
 47
0.0
 48
0.0
 49
0.0
140
0.0
141
0.0
142
1.0
143
1.0
 70
  1712
 72
     1
 73
     0
 74
     0
  7

 75
     0
147
1.0
148
0.0
149
0.0
100
AcDbLayout
  1
Model
 70
     1
 71
     0
 10
0.0
 20
0.0
 11
279.4
 21
215.9
 12
0.0
 22
0.0
 32
0.0
 14
0.0
 24
0.0
 34
0.0
 15
279.4
 25
215.9
 35
0.0
146
0.0
 13
0.0
 23
0.0
 33
0.0
 16
1.0
 26
0.0
 36
0.0
 17
0.0
 27
1.0
 37
0.0
 76
     0
330
1F
331
29
  0
MLINESTYLE
  5
18
102
{ACAD_REACTORS
330
17
102
}
330
17
100
AcDbMlineStyle
  2
Standard
 70
     0
  3

 62
   256
 51
90.0
 52
90.0
 71
     2
 49
0.5
 62
   256
  6
BYLAYER
 49
-0.5
 62
   256
  6
BYLAYER
  0
ACDBPLACEHOLDER
  5
F
102
{ACAD_REACTORS
330
E
102
}
330
E
  0
SCALE
  5
48
102
{ACAD_REACTORS
330
47
102
}
330
47
100
AcDbScale
 70
     0
300
1:1
140
1.0
141
1.0
290
     1
  0
SCALE
  5
49
102
{ACAD_REACTORS
330
47
102
}
330
47
100
AcDbScale
 70
     0
300
1:2
140
1.0
141
2.0
290
     0
  0
SCALE
  5
4A
102
{ACAD_REACTORS
330
47
102
}
330
47
100
AcDbScale
 70
     0
300
1:4
140
1.0
141
4.0
290
     0
  0
SCALE
  5
4B
102
{ACAD_REACTORS
330
47
102
}
330
47
100
AcDbScale
 70
     0
300
1:5
140
1.0
141
5.0
290
     0
  0
SCALE
  5
4C
102
{ACAD_REACTORS
330
47
102
}
330
47
100
AcDbScale
 70
     0
300
1:8
140
1.0
141
8.0
290
     0
  0
SCALE
  5
4D
102
{ACAD_REACTORS
330
47
102
}
330
47
100
AcDbScale
 70
     0
300
1:10
140
1.0
141
10.0
290
     0
  0
SCALE
  5
4E
102
{ACAD_REACTORS
330
47
102
}
330
47
100
AcDbScale
 70
     0
300
1:16
140
1.0
141
16.0
290
     0
  0
SCALE
  5
4F
102
{ACAD_REACTORS
330
47
102
}
330
47
100
AcDbScale
 70
     0
300
1:20
140
1.0
141
20.0
290
     0
  0
SCALE
  5
50
102
{ACAD_REACTORS
330
47
102
}
330
47
100
AcDbScale
 70
     0
300
1:30
140
1.0
141
30.0
290
     0
  0
SCALE
  5
51
102
{ACAD_REACTORS
330
47
102
}
330
47
100
AcDbScale
 70
     0
300
1:40
140
1.0
141
40.0
290
     0
  0
SCALE
  5
52
102
{ACAD_REACTORS
330
47
102
}
330
47
100
AcDbScale
 70
     0
300
1:50
140
1.0
141
50.0
290
     0
  0
SCALE
  5
53
102
{ACAD_REACTORS
330
47
102
}
330
47
100
AcDbScale
 70
     0
300
1:100
140
1.0
141
100.0
290
     0
  0
SCALE
  5
54
102
{ACAD_REACTORS
330
47
102
}
330
47
100
AcDbScale
 70
     0
300
2:1
140
2.0
141
1.0
290
     0
  0
SCALE
  5
55
102
{ACAD_REACTORS
330
47
102
}
330
47
100
AcDbScale
 70
     0
300
4:1
140
4.0
141
1.0
290
     0
  0
SCALE
  5
56
102
{ACAD_REACTORS
330
47
102
}
330
47
100
AcDbScale
 70
     0
300
8:1
140
8.0
141
1.0
290
     0
  0
SCALE
  5
57
102
{ACAD_REACTORS
330
47
102
}
330
47
100
AcDbScale
 70
     0
300
10:1
140
10.0
141
1.0
290
     0
  0
SCALE
  5
58
102
{ACAD_REACTORS
330
47
102
}
330
47
100
AcDbScale
 70
     0
300
100:1
140
100.0
141
1.0
290
     0
  0
SCALE
  5
59
102
{ACAD_REACTORS
330
47
102
}
330
47
100
AcDbScale
 70
     0
300
1/128" = 1'-0"
140
0.0078125
141
12.0
290
     0
  0
SCALE
  5
5A
102
{ACAD_REACTORS
330
47
102
}
330
47
100
AcDbScale
 70
     0
300
1/64" = 1'-0"
140
0.015625
141
12.0
290
     0
  0
SCALE
  5
5B
102
{ACAD_REACTORS
330
47
102
}
330
47
100
AcDbScale
 70
     0
300
1/32" = 1'-0"
140
0.03125
141
12.0
290
     0
  0
SCALE
  5
5C
102
{ACAD_REACTORS
330
47
102
}
330
47
100
AcDbScale
 70
     0
300
1/16" = 1'-0"
140
0.0625
141
12.0
290
     0
  0
SCALE
  5
5D
102
{ACAD_REACTORS
330
47
102
}
330
47
100
AcDbScale
 70
     0
300
3/32" = 1'-0"
140
0.09375
141
12.0
290
     0
  0
SCALE
  5
5E
102
{ACAD_REACTORS
330
47
102
}
330
47
100
AcDbScale
 70
     0
300
1/8" = 1'-0"
140
0.125
141
12.0
290
     0
  0
SCALE
  5
5F
102
{ACAD_REACTORS
330
47
102
}
330
47
100
AcDbScale
 70
     0
300
3/16" = 1'-0"
140
0.1875
141
12.0
290
     0
  0
SCALE
  5
60
102
{ACAD_REACTORS
330
47
102
}
330
47
100
AcDbScale
 70
     0
300
1/4" = 1'-0"
140
0.25
141
12.0
290
     0
  0
SCALE
  5
61
102
{ACAD_REACTORS
330
47
102
}
330
47
100
AcDbScale
 70
     0
300
3/8" = 1'-0"
140
0.375
141
12.0
290
     0
  0
SCALE
  5
62
102
{ACAD_REACTORS
330
47
102
}
330
47
100
AcDbScale
 70
     0
300
1/2" = 1'-0"
140
0.5
141
12.0
290
     0
  0
SCALE
  5
63
102
{ACAD_REACTORS
330
47
102
}
330
47
100
AcDbScale
 70
     0
300
3/4" = 1'-0"
140
0.75
141
12.0
290
     0
  0
SCALE
  5
64
102
{ACAD_REACTORS
330
47
102
}
330
47
100
AcDbScale
 70
     0
300
1" = 1'-0"
140
1.0
141
12.0
290
     0
  0
SCALE
  5
65
102
{ACAD_REACTORS
330
47
102
}
330
47
100
AcDbScale
 70
     0
300
1-1/2" = 1'-0"
140
1.5
141
12.0
290
     0
  0
SCALE
  5
66
102
{ACAD_REACTORS
330
47
102
}
330
47
100
AcDbScale
 70
     0
300
3" = 1'-0"
140
3.0
141
12.0
290
     0
  0
SCALE
  5
67
102
{ACAD_REACTORS
330
47
102
}
330
47
100
AcDbScale
 70
     0
300
6" = 1'-0"
140
6.0
141
12.0
290
     0
  0
SCALE
  5
68
102
{ACAD_REACTORS
330
47
102
}
330
47
100
AcDbScale
 70
     0
300
1'-0" = 1'-0"
140
12.0
141
12.0
290
     0
  0
ENDSEC
  0
EOF
